Oops, an error
Loading. Please wait.
We have Chord Pro version of Over The Hills And Far Away.
It's the closest thing you can get to the original song and it has interactive parts. Check out the tab »
×
3,451 views 48 this week
1 commentread comment
1 2 3 4 5
x 6
add to favorites
×
Save as Personal and add changes to this tab that will be seen only by you. Learn more ›
×
You can save this tab as Personal to edit and correct it or add notes. All changes will be seen only by you. Learn more »
launch autoscroll
font size
0
reset
how to read this tab
guitar tuner
backing track
0:00
0:00
edit
Autoscroll
slow
fast
+/-
esc
set tempo
stop
Author
[Intro]

e|--------------------3---------------------------2------------------------3-|
B|--------------------3---------------------------3------------------------3-|
G|---0h2p0------0-----0----0h2p0---0---4p2p0------2------0h2p0-------0-----0-|
D|---------4p0--------0----------4------------0---0-------------4p0--------0-|
A|--------------------2----------------------------------------------------2-|
E|--------------------3----------------------------------------------------3-|

e|--------------------------2-------------------3---------------------------2|
B|--------------------------3-------------------3---------------------------3|
G|---0h2p0---0---4p2p0------2-------------------0-------0h2p0-----0---4p2p0-2|
D|---------4------------0---0-------2--0h2p0----0--------------4------------0|
A|------------------------------0h2-------------2----------------------------|
E|----------------------------------------------3----------------------------|

e|--------------------3---------------------------2---------------------0----|
B|--------------------3---------------------------3---------------------3----|
G|---0h2p0------0-----0----0h2p0---0---4p2p0------2------0h2p0----------0----|
D|---------4p0--------0----------4------------0---0-------------4p0-----0----|
A|--------------------2-------------------------------------------------3----|
E|--------------------3-------------------------------------------------0----|

e|---0------------------------------------------------0----------------------|
B|---3------3/5---------------------------------------3----------------------|
G|---0------0/0-------Repeat All But Last 4 Chords----0----------------------|
D|---0------3/5---------------------------------------0----------------2-0---|
A|---2------1/3---------------------------------------3---------0-2-0--------|
E|---0------------------------------------------------0---3-3-3--------------|

e|--2-----------------------3-------------------------3--3-------------------|
B|--3-----------------------2-------------------------2--0-------------------|
G|--2-----------------------3-------------------------3--3-------------------|
D|--0----------------2-0----0-------------------2-0---0--0-------------------|
A|-------------0-2-0---------------------0-2-0-------------------------------|
E|-------3-3-3---------------------3-3-3-------------------------------------|


************************************

| h  Hammer-on
| p  Pull-off
| /  Slide up
|

************************************

            
            
Suggest correction
Creating personal tab
Creating personal tab
You can edit any tab online and save it as your Personal.

You can edit, replace or remove any tab part or add personal notes – all changes will be seen only by you.

Personal tabs can be accessed anytime from any device, even offline.
Learn more »
comments
print report bad tab
1 comment total.
0 reply
lambornken 10 Sep 12, 2017 11:13 AM

Great timing learned the bridge I was having trouble with

guest
You may want to rate the tab now too:
select rating
Wanna post a correction for this tab? Suggest correction