Oops, an error
Loading. Please wait.

Sugar Mama tab

520 views 1 this week
2 commentsread comments
1 2 3 4 5
1 last vote to show rating
add to favorites
×
Save as Personal and add changes to this tab that will be seen only by you. Learn more ›
×
You can save this tab as Personal to edit and correct it or add notes. All changes will be seen only by you. Learn more »
launch autoscroll
font size
0
reset
how to read this tab
guitar tuner
edit
Autoscroll
slow
fast
+/-
esc
set tempo
stop
-Sugar mama
-by: Led Zeppelin
-from: Coda (2015 reissue)

s-sliding 

Intro
e|-----------------------------------------|
B|---8---8-----8---8-----8--8--------------|
G|---7---7-----7---7-----7--7---7-7-6-5-4--|
D|---6---6-----6---6-----6--6---6-6-5-4-3--|
A|---7---7-----7---7-----7--7---7-7-6-5-4--|
E|---0---0-----0---0-----0--0--------------|2x

e|----------------------------------------|
B|----------------------------------------|
G|--s7--7-7------s7--7-7------s7--7-7-----|
D|--s6--6-6------s6--6-6------s6--6-6-----|
A|--s7--7-7------s7--7-7------s7--7-7-----|
E|----------------------------------------|
   
e|--------------------------|
B|--------------------------|
G|---7----7----6----5----4--|
D|---6----6----5----4----3--|
A|---7----7----6----5----4--|
E|--------------------------|

e|----------------------------------------|
B|----------------------------------------|
G|--s7--7-7------s7--7-7------s7--7-7-----|
D|--s6--6-6------s6--6-6------s6--6-6-----|
A|--s7--7-7------s7--7-7------s7--7-7-----|
E|----------------------------------------|

e|--------------------------|
B|--------------------------|
G|---7----7----6----5----4--|
D|---6----6----5----4----3--|
A|---7----7----6----5----4--|
E|--------------------------|

 Sugar mama,  sugar mama,  sugar mama,
e|----------------------------------------|
B|----------------------------------------|
G|--s7--7-7------s7--7-7------s7--7-7-----|
D|--s6--6-6------s6--6-6------s6--6-6-----|
A|--s7--7-7------s7--7-7------s7--7-7-----|
E|----------------------------------------|

          Where you been?
e|--------------------------|
B|--------------------------|
G|---7----7----6----5----4--|
D|---6----6----5----4----3--|
A|---7----7----6----5----4--|
E|--------------------------|

e|----------------------------------------|
B|----------------------------------------|
G|--s7--7-7------s7--7-7------s7--7-7-----|
D|--s6--6-6------s6--6-6------s6--6-6-----|
A|--s7--7-7------s7--7-7------s7--7-7-----|
E|----------------------------------------|

e|--------------------------|
B|--------------------------|
G|---7----7----6----5----4--|
D|---6----6----5----4----3--|
A|---7----7----6----5----4--|
E|--------------------------|

 Sugar mama,  sugar mama,  sugar mama,
e|----------------------------------------|
B|----------------------------------------|
G|--s7--7-7------s7--7-7------s7--7-7-----|
D|--s6--6-6------s6--6-6------s6--6-6-----|
A|--s7--7-7------s7--7-7------s7--7-7-----|
E|----------------------------------------|

          Where you been?
e|--------------------------|
B|--------------------------|
G|---7----7----6----5----4--|
D|---6----6----5----4----3--|
A|---7----7----6----5----4--|
E|--------------------------|

e|----------------------------------------|
B|----------------------------------------|
G|--s7--7-7------s7--7-7------s7--7-7-----|
D|--s6--6-6------s6--6-6------s6--6-6-----|
A|--s7--7-7------s7--7-7------s7--7-7-----|
E|----------------------------------------|

e|--------------------------|
B|--------------------------|
G|---7----7----6----5----4--|
D|---6----6----5----4----3--|
A|---7----7----6----5----4--|
E|--------------------------|

    Sugar mama!  Sugar mama!
e|----------------------------------------|
B|----------------------------------------|
G|----------------------------------------|
D|--s6--6-6------s6--6-6------s6--6-6-----|
A|--s7--7-7------s7--7-7------s7--7-7-----|
E|--s7--7-7------s7--7-7------s7--7-7-----|

e|--------------------------|
B|--------------------------|
G|--------------------------|
D|---6----6----5----4----3--|
A|---7----7----6----5----4--|
E|---7----7----6----5----4--|

e|----------------------------------------|
B|----------------------------------------|
G|--s7--7-7------s7--7-7------s7--7-7-----|
D|--s6--6-6------s6--6-6------s6--6-6-----|
A|--s7--7-7------s7--7-7------s7--7-7-----|
E|----------------------------------------|

e|--------------------------|
B|--------------------------|
G|---7----7----6----5----4--|
D|---6----6----5----4----3--|
A|---7----7----6----5----4--|
E|--------------------------|

    Say you love me sugar mama
e|------------------------------------|
B|------------------------------------|
G|--5---------------------------------|
D|--5---------------------5-----------|
A|--7---------------------5-----------|
E|------------------------7-----------|

   I'll never let you go  
e|------------------------------------------------------------|
B|------------------------------------------------------------|
G|----------------------s7--7-7------s7--7-7------s7--7-7-----|
D|----------------------s6--6-6------s6--6-6------s6--6-6-----|
A|----------------------s7--7-7------s7--7-7------s7--7-7-----|
E|------------------------------------------------------------|
                       (start over with same pattern)

e|--------------------------|
B|--------------------------|
G|---7----7----6----5----4--|
D|---6----6----5----4----3--|
A|---7----7----6----5----4--|
E|--------------------------|

Not much of a "tabber" but i thought that this would be a fun and easy one to tab out. Basically
all you have to do is apply the method of the first verse and chorus to thew rest of their 
counterparts and that's pretty much the song now i understand its not perfect and will probably 
need some tweeking so trolls get off of my cloud. In my opinion you should just have some fun with
the solo and just rip out some great E minor licks... in short have fun rock on and don't die.

Sugar mama, sugar mama, sugar mama,
Where you been?
Sugar mama, sugar mama, sugar mama,
Where you been?
Sugar mama!

Say you love me sugar mama
I'll never let you go

Sugar mama, sugar mama, sugar mama,
Love you babe
Sugar mama, sugar mama, sugar mama,
Drive me insane
Sugar mama gonna love you all I can

Say you love me sugar mama
I'll never let you go

Say you love me sugar mama
I'll never let you go

Say you love me sugar mama
I'll never let you go

            
            
Suggest correction
Creating personal tab
Creating personal tab
You can edit any tab online and save it as your Personal.

You can edit, replace or remove any tab part or add personal notes – all changes will be seen only by you.

Personal tabs can be accessed anytime from any device, even offline.
Learn more »
Give kudos to tab author, rate the tab!
1 2 3 4 5
comments
print report bad tab
2 comments total.
0 reply
jleandre656 10 Feb 02, 2017 04:33 PM

i tabbed this back when i didn't have an account so ignore the thew spelling error XD

+1 reply
NSpen1 [tm] 15,010 Apr 06, 2017 11:51 PM

You can have this tab assigned to your account if you would like.

guest
Wanna post a correction for this tab? Suggest correction