Oops, an error
Loading. Please wait.

The Girl I Love She Got Long Black Wavy Hair tab

version 5
version 5

Whole song

Interactive

1,921 views 1 this week
no commentswrite comment
1 2 3 4 5
2 more votes to show rating
add to favorites
×
Save as Personal and add changes to this tab that will be seen only by you. Learn more ›
×
You can save this tab as Personal to edit and correct it or add notes. All changes will be seen only by you. Learn more »
launch autoscroll
font size
0
reset
how to read this tab
guitar tuner
edit
Autoscroll
slow
fast
+/-
esc
set tempo
stop
Author
Difficulty
Led Zeppelin - The Girl I Love She Got Long Black Wavy Hair
Tab by McKIWI

INTRO
Riff A
E|--------------------------------------|
B|--------------------------------------|
G|--------------------------------------|  2X
D|------7-5---5~-5--5-7\----------------|
A|-0-0------7-----7---------0-0---------|
E|------------------------------3-0-3-5-|

Riff B
E|---------------------------------------------------------|
B|---------------------------------------------------------|
G|---------------------------------------------------------|
D|-0-0--12-10----10~-10----10-12\---0-0--10----10-12--/19\-|
A|------------12--------12------------------12-------------|
E|---------------------------------------------------------|

Riff A (1X)
E|--------------------------------------|
B|--------------------------------------|
G|--------------------------------------|
D|------7-5---5~-5--5-7\----------------|
A|-0-0------7-----7---------0-0---------|
E|------------------------------3-0-3-5-|

Bridge
 |  E       |D    C G|
E|----------|--------|
B|----------|--------|
G|-9-9-9-9--|7-7--5\-|
D|-9-9-9-9--|7-7--5\5|
A|-7-7-7-7--|5-5--3\5|
E|----------|------\3|

Riff A (1X)
E|--------------------------------------|
B|--------------------------------------|
G|--------------------------------------|
D|------7-5---5~-5--5-7\----------------|
A|-0-0------7-----7---------0-0---------|
E|------------------------------3-0-3-5-|


Solos over Am pentatonic scale
   5   6   7   8         17  18  19  20
E|-*-|---|---|-*-|------|-*-|---|---|-*-|
B|-*-|---|---|-*-|------|-*-|---|---|-*-|   o = optional blues note
G|-*-|---|-*-|-o-|------|-*-|---|-*-|-o-|   * = notes
D|-*-|---|-*-|---|------|-*-|---|-*-|---|
A|-*-|-o-|-*-|---|------|-*-|-o-|-*-|---|
E|-*-|---|---|-*-|------|-*-|---|---|-*-|


Intro(4x)
Bridge(1x)
Verse(10x)
Bridge(1x)
Solo
Bridge(1x)
Verse(10x)


SOLO:
e---------12--------------------------------------------------|
B------12------15b---15b--------------------------------------|
G-14b---------------------12h--14-------12h--14-------12h--14-|
D----------------------------------14------------14-----------|
A-------------------------------------------------------------|
E-------------------------------------------------------------|

e-------------12--------------------------------------------|
B----------12------15\17b---15h--17-------------------------|
G-14--14b----------------------------17---17b---12h--14-----|
D--------------------------------------------------------14-|
A-----------------------------------------------------------|
E-----------------------------------------------------------|

e-------------------------14p--12-----14p--12----14p--12----|
B-7\8-8-8-8-8-8-8-8-8-8-----------13----------13---------13-|
G---9-9-9-9-9-9-9-9-9-9-------------------------------------|
D-----------------------------------------------------------|
A-----------------------------------------------------------|
E-----------------------------------------------------------|

e-13----13----13----13-------------------------|
B-15b---15b---15b---15b----------22b--22b--22b-|
G----------------------------------------------|
D----------------------------------------------|
A----------------------------------------------|
E----------------------------------------------|


Whoa, the girl I love she's got long black wavy hair, I do declare
The girl I love, she’s got long black wavy hair, ah yeah,
Her mother and her father lordy, sure don’t, sure don’t want me there

Well I, go back to my baby, Lord
I,I swear I wouldn't lie
I never saw that sweet woman yeah
For five long years gone by, yeah
Well I said whoa-oh-oh-oh-oh, I I'm going home

Cause she's a sweet little darling, whoa
I said I been away, ah for too long
I been away too long

Well, when my baby walks she shakes,
she shakes just like a willow tree, yes she does
Well my baby, when she walks, walks all over me you know
Oh that sweeter baby, you know she walks all over me
Ooh yeah Whoa Love my baby

            
            
Suggest correction
Creating personal tab
Creating personal tab
You can edit any tab online and save it as your Personal.

You can edit, replace or remove any tab part or add personal notes – all changes will be seen only by you.

Personal tabs can be accessed anytime from any device, even offline.
Learn more »
Give kudos to tab author, rate the tab!
1 2 3 4 5
comments
print report bad tab
guest
You may want to rate the tab now too:
select rating
Wanna post a correction for this tab? Suggest correction