Oops, an error
Loading. Please wait.
We have an official Whole Lotta Love tab made by UG professional guitarists. Check out the tab »
×
51,433 views 81 this week
2 commentsread comments
1 2 3 4 5
x 54
add to favorites
×
Save as Personal and add changes to this tab that will be seen only by you. Learn more ›
×
You can save this tab as Personal to edit and correct it or add notes. All changes will be seen only by you. Learn more »
launch autoscroll
font size
0
reset
guitar tuner
backing track
0:00
0:00
edit
Autoscroll
slow
fast
+/-
esc
set tempo
stop
Author
I saw the other bass tab for this and it wasn't quite right, so I thought I'd fix it.
The intro is like this:

G|-------------------|------------------|------------------|
D|-------------------|------------------|------------------|
A|-----------5----5--|------------------|-------------5---5|
E|---------7----7----|--0--00--00--00--0|0--00--00--7---7--|

G|------------------|
D|------------------|
A|-------------5---5|etc.
E|-0--00--00-7---7--|

So that's how is starts, and then you basically just repeat the main riff:
G|------------------|
D|------------------|
A|-------------5---5|
E|-0--00--00-7---7--|
for the rest of the song. You stop in the middle for I think 37 bars, and during that 
just does some random slides. And then for the guitar solo, just do:
G|------------------|
D|------------------|
A|------------------|
E|-0--0-------------|
You play that six times, and after the sixth time you go right back into the main riff.
Then there's another change towards the end. I'll put it with the vocals to make it easier:
            Way down in   side,..  woman..  you need, yeah
G|---------|----------|---------|--------|--------------------|----------|
D|---------|----------|---------|--------|--------------------|----------|
A|---------|----------|---------|--------|------------------7-|-0--------|
E|--0------|----------|---------|--------|--------------------|----------|

Love!------------------

G|--------|-----------|
D|--------|-----------|
A|--------|-----------|
E|--0-----|---(0)-----|

Then you go back into the main riff again, and while it's fading, Jimmy Paige changes it 
a little, and to match that with the bass play:
G|--------------------|----------------|
D|-------------------5|----------------|
A|---------------5----|----------------|
E|--0--00--00--7---7--|--0--00--00-----|
Like that.
And that's it. Please rate and enjoy!


************************************

| (n)  Ghost note

************************************

            
            
Suggest correction
Creating personal tab
Creating personal tab
You can edit any tab online and save it as your Personal.

You can edit, replace or remove any tab part or add personal notes – all changes will be seen only by you.

Personal tabs can be accessed anytime from any device, even offline.
Learn more »
comments
print report bad tab
2 comments total.
0 reply
Sp00nman94 176 Aug 18, 2008 06:12 PM

nice

0 reply
btkircher 188 Oct 04, 2012 11:09 AM

This may be simplified, but it works.

guest
You may want to rate the tab now too:
select rating
Wanna post a correction for this tab? Suggest correction