Oops, an error
Loading. Please wait.

Loser Without Your Love Live chords

58 views 3 this week
no commentswrite comment
1 2 3 4 5
3 more votes to show rating
add to favorites
×
Save as Personal and add changes to this tab that will be seen only by you. Learn more ›
×
You can save this tab as Personal to edit and correct it or add notes. All changes will be seen only by you. Learn more »
launch autoscroll
font size
0
reset
transpose
0
reset
simplify chords
display chords
guitar tuner
edit
Autoscroll
slow
fast
+/-
esc
set tempo
stop
Author
Difficulty
Strumming
There is no strumming pattern for this song yet. and get +5 IQ
From the performance: https://www.youtube.com/watch?v=j96zl8X2HFE

[Intro]
Am Em Am Em
Am Em Am Em
      1 2 3 4
Am Em Am Em

   Am     Em      Am      Em    Am  Em  C  Em 
e|-------------------------------------------|
B|------5------------------------------------|
G|----5---7~-5------------5------------------| X 2
D|-/7----------7-5--5---5---7~---------------|
A|--------------------7----------------------|
E|-------------------------------------------|

[Verse 1]
Am            Em            Am         Em           Am  Em7 Am Em      
My brain's in high gear as I step down on the track
Am       Em          Am                Em           Am  Em7 Am Em   
T. H. and B Go's, spittin through the broken glass
Am         Em       Am             Em           Am  Em7 Am Em 
I’ve gotta keep on working I can’t afford a fight
Am       Em       Am           Em           Am      Em7 Am Em 
I gotta keep on movin if I’m gonna see your face tonight

[Chorus]
   Am     Em      Am      Em     
e|-------------------------------------------|
B|------5------------------------------------|
G|----5---7~-5------------5------------------| 
D|-/7----------7-5--5---5---7~---------------|
A|--------------------7----------------------|
E|-------------------------------------------|

Am                 Em
Do you wanna know? Do you wanna know?
              C       Em 
Do you wanna know now baby?

   Am     Em      Am      Em     
e|-------------------------------------------|
B|------5------------------------------------|
G|----5---7~-5------------5------------------| 
D|-/7----------7-5--5---5---7~---------------|
A|--------------------7----------------------|
E|-------------------------------------------|

Am           Em   C          Em     Am
Do you wanna know about this mess?
N.C.
I’m just a loser without your love, I guess
Am  Em7 Am Em  
Am         Em7      Am        Em        Am  Em7 Am Em
I’m just a loser without your love baby

   Am     Em      Am      Em    Am  Em  C  Em   
e|-------------------------------------------|
B|------5------------------------------------|
G|----5---7~-5------------5------------------| X 2
D|-/7----------7-5--5---5---7~---------------|
A|--------------------7----------------------|
E|-------------------------------------------|

[Verse 2]
Am          Em            Am            Em           Am  Em7 Am Em  
I’m still in love with the girl that you used to be
Am          Em       Am            Em           Am  Em7 Am Em  
A little Jesus     walking on your endless sea
Am          Em         Am              Em           Am  Em7 Am Em  
Wet just in August     don’t tryin' to break your heat
Am            Em       Am          Em       Am  Em7 Am    Em  
Red brick and lazy and lost in an endless sleep      oh Yeah  for you

[Chorus]
   Am     Em      Am      Em     
e|-------------------------------------------|
B|------5------------------------------------|
G|----5---7~-5------------5------------------| 
D|-/7----------7-5--5---5---7~---------------|
A|--------------------7----------------------|
E|-------------------------------------------|

Am                 Em
Do you wanna know? Do you wanna know?
              C       Em 
Do you wanna know now baby?

   Am     Em      Am      Em     
e|-------------------------------------------|
B|------5------------------------------------|
G|----5---7~-5------------5------------------| 
D|-/7----------7-5--5---5---7~---------------|
A|--------------------7----------------------|
E|-------------------------------------------|

Am           Em   C          Em     Am
Do you wanna know about this mess?
N.C.
I’m just a loser without your love, I guess
Am  Em7 Am Em  
Am         Em7      Am        Em        Am  Em7 Am Em
I’m just a loser without your love baby

   Am     Em      Am      Em    Am  Em  C  Em   
e|-------------------------------------------|
B|------5------------------------------------|
G|----5---7~-5------------5------------------| X 2
D|-/7----------7-5--5---5---7~---------------|
A|--------------------7----------------------|
E|-------------------------------------------|

[Solo]
Dm      Am  Em7 Am Em
Dm      Am  Em7 Am Em
Am  Em7 Am Em
Am  Em7 Am Em

[Verse 3]
Am          Em            Am            Em           Am  Em7 Am Em  
I’m still in love with the girl that you used to be
Am          Em       Am            Em           Am  Em7 Am Em  
A little Jesus     walking on your endless sea
Am          Em         Am              Em           Am  Em7 Am Em  
Wet just in August     don’t tryin' to shake your heat
Am            Em       Am          Em       Am  Em7 Am    Em  
Red brick and lazy and lost in an endless sleep      oh Yeah  for you

[Outro]
   Am     Em      Am      Em     
e|-------------------------------------------|
B|------5------------------------------------|
G|----5---7~-5------------5------------------| 
D|-/7----------7-5--5---5---7~---------------|
A|--------------------7----------------------|
E|-------------------------------------------|

Am                 Em
Do you wanna know? Do you wanna know?
              C       Em 
Do you wanna know now baby?

   Am     Em      Am      Em     
e|-------------------------------------------|
B|------5------------------------------------|
G|----5---7~-5------------5------------------| 
D|-/7----------7-5--5---5---7~---------------|
A|--------------------7----------------------|
E|-------------------------------------------|

Am                 Em
Do you wanna know? Do you wanna know?
              C       Em 
Do you wanna know now baby?

   Am     Em      Am      Em     
e|-------------------------------------------|
B|------5------------------------------------|
G|----5---7~-5------------5------------------| 
D|-/7----------7-5--5---5---7~---------------|
A|--------------------7----------------------|
E|-------------------------------------------|

Am           Em   C          Em     Am
Do you wanna know about this mess?
N.C.
I’m just a loser without your love, I guess

************************************

| /   Slide up
| ~   Vibrato

************************************

            
            
Suggest correction
Creating personal tab
Creating personal tab
You can edit any tab online and save it as your Personal.

You can edit, replace or remove any tab part or add personal notes – all changes will be seen only by you.

Personal tabs can be accessed anytime from any device, even offline.
Learn more »
Give kudos to tab author, rate the tab!
1 2 3 4 5
comments
print report bad tab
guest
You may want to rate the tab now too:
select rating
Wanna post a correction for this tab? Suggest correction