Oops, an error
Loading. Please wait.

Rio Funk bass

version 1
version 1

Whole song

Interactive

30,717 views 21 this week
1 commentread comment
1 2 3 4 5
x 7
add to favorites
×
Save as Personal and add changes to this tab that will be seen only by you. Learn more ›
×
You can save this tab as Personal to edit and correct it or add notes. All changes will be seen only by you. Learn more »
launch autoscroll
font size
0
reset
guitar tuner
backing track
0:00
0:00
edit
Autoscroll
slow
fast
+/-
esc
set tempo
stop
Author
Difficulty
[Intro]
G|---------------3h5-3-5-3-------3----------------|
D|--------3-5-3------------3-5-3--5---------------|
A|------------------------------------------------|
E|--1-4-3-----------------------------------------|

G|-------------3h5-3-5/75-3---------------------|
D|-------3-5-3---------------3------------------|
A|----------------------------------------------|
E|-1-1-3----------------------------------------|

G|---------------------3h5-3-5-3-------3-------|
D|---2-----3----3-5-3------------3-5-3--5------|
A|---------------------------------------------|
E|-0---0-1---3---------------------------------|

(You pretty much just repeat that for the intro. For the first 2 slap on your E and D 
but pop on your G string. for the third one just do the same except for the first part,
slap your E string and pop on your D string, then after that it goes back to that same
first riff just slapp the D and E and pop the G.)

[Verse]
G|-------------5-------------------------------|
D|---5-----------------------------------------|
A|------1-2-3----------------------------------|
E|-3-------------0-1-3-------------------------|

(thast teh basic riff, i liek to do simple changes like pop the G string many times and 
out other notes.)

[Chorus]
(the no slapping part)
G|---------------------------------------------|
D|--------4--------4---------------------------|
A|--2--5-----2--5------------2--------2--------|
E|---------------------0--2-----0--2-----------|


************************************

| h  Hammer-on
| /  Slide up

************************************

            
            
Suggest correction
Creating personal tab
Creating personal tab
You can edit any tab online and save it as your Personal.

You can edit, replace or remove any tab part or add personal notes – all changes will be seen only by you.

Personal tabs can be accessed anytime from any device, even offline.
Learn more »
comments
print report bad tab
1 comment total.
0 reply
marlonjohn 179 May 16, 2007 09:01 PM

hey! nyc! 5 stars! but something is missing! ^^,

guest
You may want to rate the tab now too:
select rating
Wanna post a correction for this tab? Suggest correction