Oops, an error
Loading. Please wait.

Dumber tab

171 views 1 this week
no commentswrite comment
1 2 3 4 5
3 more votes to show rating
add to favorites
×
Save as Personal and add changes to this tab that will be seen only by you. Learn more ›
×
You can save this tab as Personal to edit and correct it or add notes. All changes will be seen only by you. Learn more »
launch autoscroll
font size
0
reset
how to read this tab
guitar tuner
edit
Autoscroll
slow
fast
+/-
esc
set tempo
stop
Author
Difficulty
-------------------------------------------------------------------------------
                             DUMBER - Leftovers
-------------------------------------------------------------------------------

Tuning: Standard (E A D G B e)
Album: Dumber
Year: 2014
Tabbed by: TheFusiov aka Erik Grey

Made exclusively by my ear.

Intro

     |   ^   |   ^   |   ^   |   ^   |
e|-----------------------------------|
B|-----------------------------------|
G|-----------------------------------|
D|---6-------6-------7~------7-7-7---|
A|---7-------7-------7~------7-7-7---|
E|---5-------5-------5-------5-5-5---|
                                      x4

     |   ^   |   ^   |   ^   |   ^   |
e|-----------------------------------|
B|-----------------------------------|
G|-----------------------------------|
D|---6---6--6-6--7---7-7-7---6-6-6---|
A|---7---7--7-7--7---7-7-7---7-7-7---|
E|---0---0--0-0--0---0-0-0---0-0-0---|
                                      x2
     |   ^   |   ^   |   ^   |   ^   |
e|-----------------------------------|
B|-----------------------------------|
G|-----------------------------------|
D|---6---6--6-6--7---7-7-7---6-6-6---|
A|---7---7--7-7--7---7-7-7---7-7-7---|
E|---5---5--5-5--5---5-5-5---5-5-5---|
                                      x2
     |   ^   |   ^   |   ^   |   ^   |
e|-----------------------------------|
B|-----------------------------------|
G|-----------------------------------|
D|---6---6--6-6--7---7-7-7---6-6-6---|
A|---7---7--7-7--7---7-7-7---7-7-7---|
E|---0---0--0-0--0---0-0-0---0-0-0---|
                                      x2
     |   ^   |   ^   |   ^   |   ^   |
e|-----------------------------------|
B|-----------------------------------|
G|-----------------------------------|
D|---6---6--6-6--7---7-7-7---6-6-6---|
A|---7---7--7-7--7---7-7-7---7-7-7---|
E|---5---5--5-5--5---5-5-5---5-5-5---|
                                      x2


Pre-Verse x2
                                   
     |   ^   |   ^   |   ^   |   ^   |
e|-----------------------------------|
B|---9-----------9~----------9-------|
G|---------9-------------9-------9---|
D|-----------------------------------|
A|-----------------------------------|
E|-----------------------------------|
                                      x2

     |   ^   |   ^   |   ^   |   ^   |
e|-----------------------------------|
B|-----------------------------------|
G|-----------------------------------|
D|---6---6--6-6--7---7-7-7---6-6-6---|
A|---7---7--7-7--7---7-7-7---7-7-7---|
E|---0---0--0-0--0---0-0-0---0-0-0---|
                                      x2



Verse 1

     |   ^   |   ^   |   ^   |   ^   |
e|-----------------------------------|
B|-----------------------------------|
G|-----------------------------------|
D|---6---6--6-6--7---7-7-7---6-6-6---|
A|---7---7--7-7--7---7-7-7---7-7-7---|
E|---0---0--0-0--0---0-0-0---0-0-0---|
                                      x2
     |   ^   |   ^   |   ^   |   ^   |
e|-----------------------------------|
B|-----------------------------------|
G|-----------------------------------|
D|---6---6--6-6--7---7-7-7---6-6-6---|
A|---7---7--7-7--7---7-7-7---7-7-7---|
E|---5---5--5-5--5---5-5-5---5-5-5---|
                                      x2
     |   ^   |   ^   |   ^   |   ^   |
e|-----------------------------------|
B|-----------------------------------|
G|-----------------------------------|
D|---6---6--6-6--7---7-7-7---6-6-6---|
A|---7---7--7-7--7---7-7-7---7-7-7---|
E|---0---0--0-0--0---0-0-0---0-0-0---|
                                      x2
     |   ^   |   ^   |   ^   |   ^   |
e|-----------------------------------|
B|-----------------------------------|
G|-----------------------------------|
D|---6---6--6-6--7---7-7-7---6-6-6---|
A|---7---7--7-7--7---7-7-7---7-7-7---|
E|---5---5--5-5--5---5-5-5---5-5-5---|
                                      x2


Chorus


Guitar 1:

     |   ^   |   ^   |   ^   |   ^   |   ^   |   ^   |   ^   |   ^   |
e|-------------------------------------------------------------------|
B|-------------------------------------------------------------------|
G|-------------------------------------------------------------------|
D|---9---9-9-9-9-9-------9---9-9-9-9-7---7-7-7-7-7-------7---7-7-7-7-|
A|---9---9-9-9-9-9-------9---9-9-9-9-7---7-7-7-7-7-------7---7-7-7-7-|
E|---7---7-7-7-7-7-------7---7-7-7-7-5---5-5-5-5-5-------5---5-5-5-5-|

     |   ^   |   ^   |   ^   |   ^   |
e|-----------------------------------|
B|-----------------------------------|
G|-----------------------------------|
D|---6---6--6-6--7---7-7-7---6-6-6---|
A|---7---7--7-7--7---7-7-7---7-7-7---|
E|---0---0--0-0--0---0-0-0---0-0-0---|
                                      x2

     |   ^   |   ^   |   ^   |   ^   |   ^   |   ^   |   ^   |   ^   |
e|-------------------------------------------------------------------|
B|-------------------------------------------------------------------|
G|-------------------------------------------------------PAUSE-------|
D|---9---9-9-9-9-9-------9---9-9-9-9-7---7-7-7-7-7-------PAUSE-------|
A|---9---9-9-9-9-9-------9---9-9-9-9-7---7-7-7-7-7-------------------|
E|---7---7-7-7-7-7-------7---7-7-7-7-5---5-5-5-5-5-------------------|


Guitar2:

     |   ^   |   ^   |   ^   |   ^   |
e|-----------------------------------|
B|---9-----------9~----------9-------|
G|---------9-------------9-------9---|
D|-----------------------------------|
A|-----------------------------------|
E|-----------------------------------|
                                      x2

     |   ^   |   ^   |   ^   |   ^   |
e|-----------------------------------|
B|-----------------------------------|
G|--------------PAUSE----------------|
D|--------------PAUSE----------------|
A|-----------------------------------|
E|-----------------------------------|
                                      x2

     |   ^   |   ^   |   ^   |   ^   |
e|-----------------------------------|
B|---9-----------9~----------9-------|
G|---------9-------------9-------9---|
D|-----------------------------------|
A|-----------------------------------|
E|-----------------------------------|
                                      x2



Post Chorus

     |   ^   |   ^   |   ^   |   ^   |   ^   |   ^   |   ^   |   ^   |
e|-------------------------------------------------------------------|
B|-------------------------------------------------------------------|
G|-------------------------------------------------------------------|
D|---2---2-2-2-2-2---7---7-7-7-7-7---------------9---------------9---|
A|---2---2-2-2-2-2---7---7-7-7-7-7---6-----7---------6------7--------|
E|---0---0-0-0-0-0---5---5-5-5-5-5-----------------------------------|
                                                                      x2


Verse 2

     |   ^   |   ^   |   ^   |   ^   |   ^   |   ^   |   ^   |   ^   |
e|-------------------------------------------------------------------|
B|-------------------------------------------------------------------|
G|-------------------------------------------------------------------|
D|---2---2-2-2-2-2---2---2-2-2-2-2---------------9---------------9---|
A|---2---2-2-2-2-2---2---2-2-2-2-2---6-----7---------6-----7---------|
E|---0---0-0-0-0-0---0---0-0-0-0-0-----------------------------------|
                                                                      x4


Final Chorus x3


Guitar 1:

     |   ^   |   ^   |   ^   |   ^   |   ^   |   ^   |   ^   |   ^   |
e|-------------------------------------------------------------------|
B|-------------------------------------------------------------------|
G|-------------------------------------------------------------------|
D|---9---9-9-9-9-9-------9---9-9-9-9-7---7-7-7-7-7-------7---7-7-7-7-|
A|---9---9-9-9-9-9-------9---9-9-9-9-7---7-7-7-7-7-------7---7-7-7-7-|
E|---7---7-7-7-7-7-------7---7-7-7-7-5---5-5-5-5-5-------5---5-5-5-5-|

     |   ^   |   ^   |   ^   |   ^   |
e|-----------------------------------|
B|-----------------------------------|
G|-----------------------------------|
D|---6---6--6-6--7---7-7-7---6-6-6---|
A|---7---7--7-7--7---7-7-7---7-7-7---|
E|---0---0--0-0--0---0-0-0---0-0-0---|
                                      x2

Guitar 2:

     |   ^   |   ^   |   ^   |   ^   |
e|-----------------------------------|
B|---9-----------9~----------9-------|
G|---------9-------------9-------9---|
D|-----------------------------------|
A|-----------------------------------|
E|-----------------------------------|
                                      x2

     |   ^   |   ^   |   ^   |   ^   |
e|-----------------------------------|
B|-----------------------------------|
G|--------------PAUSE----------------|
D|--------------PAUSE----------------|
A|-----------------------------------|
E|-----------------------------------|
                                      x2


LAST ONE

     |   ^   |   ^   |   ^   |   ^   |   ^   |   ^   |   ^   |   ^   |
e|-------------------------------------------------------------------|
B|-------------------------------------------------------------------|
G|-------------------------------------------------------------------|
D|---9~-------------------------------7~-----------------------------|
A|---9~-------------------------------7~-----------------------------|
E|---7~-------------------------------5~-----------------------------|



Outro

     |   ^   |   ^   |   ^   |   ^   |
e|-----------------------------------|
B|-----------------------------------|
G|-----------------------------------|
D|---6-------6-------7~------7-7-7---|
A|---7-------7-------7~------7-7-7---|
E|---0-------0-------0-------0-0-0---|
                                      

     |   ^   |   ^   |   ^   |   ^   |
e|-----------------------------------|
B|-----------------------------------|
G|-----------------------------------|
D|---6-------6-------7~------7-2-2---|
A|---7-------7-------7~------7-2-2---|
E|---0-------0-------0-------0-0-0---|
                               * *      
 
     |   ^   |   ^   |   ^   |   ^   |
e|-----------------------------------|
B|-----------------------------------|
G|-----------------------------------|
D|---6-------6-------7~------7-6-7---|
A|---7-------7-------7~------7-7-7---|
E|---0-------0-------0-------0-0-0---|
                                      

     |   ^   |   ^   |   ^   |   ^   |
e|-----------------------------------|
B|-----------------------------------|
G|-----------------------------------|
D|---2~------------------------------|
A|---2~------------------------------|
E|---0~------------------------------|
                                     

     |   ^   |   ^   |   ^   |   ^   |
e|----------------------0~-----------|
B|---0~--------------0~--------------|
G|------1~--------1~-----------------|
D|---------2~------------------------|
A|-----------------------------------|
E|-----------------------------------|



LEGEND:
************************************

| |   beat
| ^   upbeat
| *   palm mute
| /   slide up
| \   slide down
| h   hammer-on
| p   pull-off
| ~   vibrato
| +   harmonic
| x   Mute note
| b   Bend
| pb  Pre-bend
| br  Bend release
| pbr Pre-bend release
| brb Bend release bend

************************************

            
            
Suggest correction
Creating personal tab
Creating personal tab
You can edit any tab online and save it as your Personal.

You can edit, replace or remove any tab part or add personal notes – all changes will be seen only by you.

Personal tabs can be accessed anytime from any device, even offline.
Learn more »
Give kudos to tab author, rate the tab!
1 2 3 4 5
comments
print report bad tab
guest
You may want to rate the tab now too:
select rating
Wanna post a correction for this tab? Suggest correction