Oops, an error
Loading. Please wait.

Action Movie Hero Boy intro tab

338 views 1 this week
2 commentsread comments
1 2 3 4 5
3 more votes to show rating
add to favorites
×
Save as Personal and add changes to this tab that will be seen only by you. Learn more ›
×
You can save this tab as Personal to edit and correct it or add notes. All changes will be seen only by you. Learn more »
launch autoscroll
font size
0
reset
how to read this tab
guitar tuner
edit
Autoscroll
slow
fast
+/-
esc
set tempo
stop
Difficulty
--------------------------------------------------------------------------
                  Action Movie Hero Boy - Lemon Demon
--------------------------------------------------------------------------
Tabbed by:THEFLAMINGTPOTS
Standard Tuning!

You repeat this a few times, but, I will release a fuller tab later!
e|-------------1-1-------------------2-------------------------------------|
B|--4--4-0-2-------0---------------1---------------------------------------|
G|-------------------3-----------1-----------------------------------------|
D|-----------------------------1-------------------------------------------|
A|---------------------------0---------------------------------------------|
E|-------------------------0-----------------------------------------------|

            
            
Suggest correction
Creating personal tab
Creating personal tab
You can edit any tab online and save it as your Personal.

You can edit, replace or remove any tab part or add personal notes – all changes will be seen only by you.

Personal tabs can be accessed anytime from any device, even offline.
Learn more »
Give kudos to tab author, rate the tab!
1 2 3 4 5
comments
print report bad tab
2 comments total.
0 reply
THEFLAMINGTPOTS 319 May 06, 2010 05:07 PM

DANG IT I FORGOT TO LOG IN WHEN I UPLOADED THIS

0 reply
Tomate91 10 Sep 07, 2010 11:21 AM

Tabbed by: Tomate91
Standard Tuning

e|--4--4-3----4--4-2---------------1--2--1-----1--|
B|---------4---------4----1--3--4-----------4-----|
G|------------------------------------------------|
D|------------------------------------------------|
A|------------------------------------------------|
E|------------------------------------------------|


e|------------------------6-----4-6-4-6-----------|
B|------4-5-7------3-4-6-----4--------------------|
G|--4/6--------3/5--------------------------------|
D|------------------------------------------------|
A|------------------------------------------------|
E|------------------------------------------------|


THEFLAMINGTPOTS' tab didn't make sense, it was nothing like the song.

Have Fun!
LEMON DEMON IS THE BEST!

guest
Wanna post a correction for this tab? Suggest correction