Oops, an error
Loading. Please wait.

Ive Got Some Falling To Do tab

version 1
version 1

Whole song

Interactive

697 views 1 this week
2 commentsread comments
1 2 3 4 5
1 last vote to show rating
add to favorites
×
Save as Personal and add changes to this tab that will be seen only by you. Learn more ›
×
You can save this tab as Personal to edit and correct it or add notes. All changes will be seen only by you. Learn more »
launch autoscroll
font size
0
reset
how to read this tab
guitar tuner
edit
Autoscroll
slow
fast
+/-
esc
set tempo
stop
Author
Difficulty
Part 2 of I've Got Some Falling to Do

by Da Yoshimastah

NOT THE WHOLE SONG! this is part 2 and the chorus


When the singing starts:

 On an airplane, I was flying...

E----3----3----3----3--------|
B----------------------------|
G-5----5----5----5-----------|
D------------------------5-5-|
A------------------------5-5-|
e------------------------3-3-|

 Just a flight attendant guy...

E----3----3----3----3--------|
B-4----4----4----4-----------|
G----------------------------|
D------------------------5-5-|
A------------------------5-5-|
e------------------------3-3-|


Repeats until "I got a ring in my cell phone"

  I Pick It Up
D-5--5----6--7-|
A-5--5----6--7-|
e-3--3----4--5-|

  He Says Wazzup!
E----------------|
B------------2---|
G---------2--2---|
D-5--5----2--0---|
A-5--5----0------|
e-3--3-----------|

I will try to find out the
"Hello, goodbye, I'll see you in hell"
part as soon as I can.

            
            
Suggest correction
Creating personal tab
Creating personal tab
You can edit any tab online and save it as your Personal.

You can edit, replace or remove any tab part or add personal notes – all changes will be seen only by you.

Personal tabs can be accessed anytime from any device, even offline.
Learn more »
Give kudos to tab author, rate the tab!
1 2 3 4 5
comments
print report bad tab
2 comments total.
0 reply
Mustus 10 Feb 26, 2009 10:26 AM

No, no, no. This is wrong, very wrong.

0 reply
Teddynezz 158 Aug 24, 2009 05:09 PM

This is the correct way to play it. Mess around with it a bit and you'll figure ut the speeds and transitions.

E----3----3----3----3-----3---|
B----------------------------|
G-5----5----5----5----5-3------|
D--------------------------|
A--------------------------|
e--------------------------|

E----3----3----3----3-----3---|
B-4----4----4----4----4-3------|
G----------------------------|
D--------------------------|
A--------------------------|
e--------------------------|

guest
You may want to rate the tab now too:
select rating
Wanna post a correction for this tab? Suggest correction