Oops, an error
Loading. Please wait.

Ultimate Showdown bass

version 1
version 1

Whole song

Interactive

3,308 views 3 this week
5 commentsread comments
1 2 3 4 5
x 6
add to favorites
×
Save as Personal and add changes to this tab that will be seen only by you. Learn more ›
×
You can save this tab as Personal to edit and correct it or add notes. All changes will be seen only by you. Learn more »
launch autoscroll
font size
0
reset
guitar tuner
edit
Autoscroll
slow
fast
+/-
esc
set tempo
stop
Intro/Verse
G|--------------------------------------------------------------------------------------------------------|
D|----------3---5-----------------------------------------------------------------------------------------|
A|---5----1---3----------2------1---0---------------------------------------------------------------------|
D|-5---5---------------2---2--1---0-----------------------------------------------------------------------|

Chorus
G|--------------------------------------------------------------------------------------------------------|
D|--------------------------------------------------------------------------------------------------------|
A|-1-1-1-1-----------------------1-1-1-1-------------------------6-6-6-6-3-3-3-3-5-5-5-5-6-6-6-6-8-8-8-8--|
D|--------7-7-7-7-5-5-5-5-3-3-3-3--------7-7-7-7-5-5-5-5-3-3-3-3------------------------------------------|

            
            
Suggest correction
Creating personal tab
Creating personal tab
You can edit any tab online and save it as your Personal.

You can edit, replace or remove any tab part or add personal notes – all changes will be seen only by you.

Personal tabs can be accessed anytime from any device, even offline.
Learn more »
comments
print report bad tab
5 comments total. Showing first comments.
0 reply
Jimpan 63 Apr 21, 2007 05:37 AM

dude it just isn't right

0 reply
Mr Pringle 40 Jul 08, 2007 04:48 AM

they're just guessing really, they need the sheet music for this

0 reply
camdizzel 83 Sep 04, 2007 02:57 PM

version 2 is close to right

guest
Wanna post a correction for this tab? Suggest correction