Oops, an error
Loading. Please wait.

Unforgivable Sinner tab

version 2
version 2

Whole song

5,642 views 1 this week
no commentswrite comment
1 2 3 4 5
2 more votes to show rating
add to favorites
×
Save as Personal and add changes to this tab that will be seen only by you. Learn more ›
×
You can save this tab as Personal to edit and correct it or add notes. All changes will be seen only by you. Learn more »
launch autoscroll
font size
0
reset
how to read this tab
guitar tuner
edit
Autoscroll
slow
fast
+/-
esc
set tempo
stop
Author
Difficulty
-----------------------------------------------------------------------------------------------
  Artist - Lene Marlin
  Song   - Unforgivable Sinner
  Tabbed - Jakob Jugovic
  Mail   - jakobjugovic@gmail.com
  Year   - 2010
-----------------------------------------------------------------------------------------------

  p - pull
  h - hammer on
  / - slide upwards
  \ - slide downwards
  o - 1/4 (timescale)
  { - 2nd guitar
  b - bend
  r - release

-----------------------------------------------------------------------------------------------


INTRO:


    guitar 1 (strum chords)

    o . . . o . . . o . . . o . . . o . . . o . . . o . . . o . . .
E |-----------------------------------------------------------------|
B |-----------------------------------------------------------------|
G |-----------------------------------------------------------------|
D |-[Em]----------------------------[C]-----------------------------|
A |-----------------------------------------------------------------|
E |-----------------------------------------------------------------|
  |
  |
  | guitar 2 (solo guitar)
  |
  | o . . . o . . . o . . . o . . . o . . . o . . . o . . . o . . .
E |-----------------------------------------------------------------|
B |-----------------------------------------------------------------|
G |-----------------------------------------------------------------|
D |---------------4/5---4---5---4-------2-----------2---4-4/5---4---|
A |-----------------------------------------------------------------|
E |-----------------------------------------------------------------|
  |
  |
  | guitar 3 (high notes fill)
  |
  | o . . . o . . . o . . . o . . . o . . . o . . . o . . . o . . .
E |-------------10--------------------------------------------------|
B |-----7-h-8-------------------------------------------------------|
G |-9---------------------------------------------------------------|
D |-----------------------------------------------------------------|
A |-----------------------------------------------------------------|
E |-----------------------------------------------------------------|



    guitar 1

    o . . . o . . . o . . . o . . . o . . . o . . . o . . . o . . .
E |-----------------------------------------------------------------|
B |-----------------------------------------------------------------|
G |-----------------------------------------------------------------|
D |-[D]-----------------------------[C]-----------------------------|
A |-----------------------------------------------------------------|
E |-----------------------------------------------------------------|
  |
  |
  | guitar 2
  |
  | o . . . o . . . o . . . o . . . o . . . o . . . o . . . o . . .
E |-----------------------------------------------------------------|
B |-----------------------------------------------------------------|
G |-----------------------------------------------------------------|
D |-----------------------------------------------------------------|
A |-----------------------------------2-3-5-3-2-0-----0-------------|
E |-----------------------------------------------2h3---3---2b3r2---|
  |
  |
  | guitar 3
  |
  | o . . . o . . . o . . . o . . . o . . . o . . . o . . . o . . .
E |-------------10--------------------------------------------------|
B |-----7-h-8-------------------------------------------------------|
G |-9---------------------------------------------------------------|
D |-----------------------------------------------------------------|
A |-----------------------------------------------------------------|
E |-----------------------------------------------------------------|



    guitar 1

    o . . . o . . . o . . . o . . . o . . . o . . . o . . . o . . .
E |-----------------------------------------------------------------|
B |-----------------------------------------------------------------|
G |-----------------------------------------------------------------|
D |-[Em]----------------------------[C]-----------------------------|
A |-----------------------------------------------------------------|
E |-----------------------------------------------------------------|
  |
  |
  | guitar 2
  |
  | o . . . o . . . o . . . o . . . o . . . o . . . o . . . o . . .
E |-----------------------------------------------------------------|
B |-----------------------------------------------------------------|
G |-----------------------------------------------------------------|
D |---------------4/5---4---5---4-------2-----------2---4-4/5---4---|
A |-----------------------------------------------------------------|
E |-0---------------------------------------------------------------|
  |
  |
  | guitar 3
  |
  | o . . . o . . . o . . . o . . . o . . . o . . . o . . . o . . .
E |-------------10--------------------------------------------------|
B |-----7-h-8-------------------------------------------------------|
G |-9---------------------------------------------------------------|
D |-----------------------------------------------------------------|
A |-----------------------------------------------------------------|
E |-----------------------------------------------------------------|



    guitar 1

    o . . . o . . . o . . . o . . . o . . . o . . . o . . . o . . .
E |-----------------------------------------------------------------|
B |-----------------------------------------------------------------|
G |-----------------------------------------------------------------|
D |-[D]-----------------------------[C]-----------------------------|
A |-----------------------------------------------------------------|
E |-----------------------------------------------------------------|
  |
  |
  | guitar 2
  |
  | o . . . o . . . o . . . o . . . o . . . o . . . o . . . o . . .
E |-----------------------------------------------------------------|
B |-----------------------------------------------------------------|
G |-----------------------------------------------------------------|
D |-----------------------------------------------------------------|
A |-----------------------------------------------------------------|
E |-----------------------------------------------------------------|
  |
  |
  | guitar 3
  |
  | o . . . o . . . o . . . o . . . o . . . o . . . o . . . o . . .
E |-------------10--------------------------------------------------|
B |-----7-h-8-------------------------------------------------------|
G |-9---------------------------------------------------------------|
D |-----------------------------------------------------------------|
A |-----------------------------------------------------------------|
E |-----------------------------------------------------------------|





VERSE (strum chords in palm mute):



   [Em]                            [C]

    o . . . o . . . o . . . o . . . o . . . o . . . o . . . o . . .
E |-0-------------------------------0-------------------------------|
B |-0-------------------------------1-------------------------------|
G |-0-------------------------------0-------------------------------|
D |-2-------------------------------2-------------------------------|
A |-2-------------------------------3-------------------------------|
E |-0---------------------------------------------------------------|


   [D]                             [Bb]            [C]

    o . . . o . . . o . . . o . . . o . . . o . . . o . . . o . . .
E |-2-----------------------------------------------0---------------|
B |-3-------------------------------3---------------1---------------|
G |-2-------------------------------3---------------0---------------|
D |-0-------------------------------3---------------2---------------|
A |-0-------------------------------1---------------3---------------|
E |-----------------------------------------------------------------|



   [Asus2]                         [D]

    o . . . o . . . o . . . o . . . o . . . o . . . o . . . o . . .
E |-0-------------------------------2-------------------------------|
B |-0-------------------------------3-------------------------------|
G |-2-------------------------------2-------------------------------|
D |-2-------------------------------0-------------------------------|
A |-0-------------------------------0-------------------------------|
E |-----------------------------------------------------------------|
  |
  |
  | guitar 2
  |
  | o . . . o . . . o . . . o . . . o . . . o . . . o . . . o . . .
E |-----------------------------------------------------------------|
B |---------0-------------------------------------------------------|
G |---------2-------------------------------0-----------------------|
D |-----2-------------------------------4---------------------------|
A |-0-------------------------------5-------------------------------|
E |-----------------------------------------------------------------|



   [Em]                            [C]

    o . . . o . . . o . . . o . . . o . . . o . . . o . . . o . . .
E |-0-------------------------------0-------------------------------|
B |-0-------------------------------1-------------------------------|
G |-0-------------------------------0-------------------------------|
D |-2-------------------------------2-------------------------------|
A |-2-------------------------------3-------------------------------|
E |-0---------------------------------------------------------------|


   [D]                              [C]

    o . . . o . . . o . . . o . . . o . . . o . . . o . . . o . . .
E |-2-------------------------------0-------------------------------|
B |-3-------------------------------1-------------------------------|
G |-2-------------------------------0-------------------------------|
D |-0-------------------------------2-------------------------------|
A |-0-------------------------------3-------------------------------|
E |-----------------------------------------------------------------|



   [Asus2]

    o . . . o . . . o . . . o . . . o . . . o . . . o . . . o . . .
E |-0---------------------------------------------------------------|
B |-0---------------------------------------------------------------|
G |-2---------------------------------------------------------------|
D |-2---------------------------------------------------------------|
A |-0---------------------------------------------------------------|
E |-----------------------------------------------------------------|
  |
  |
  | guitar 2
  |
  | o . . . o . . . o . . . o . . . o . . . o . . . o . . . o . . .
E |-----------------------------------------------------------------|
B |-----------0-----0h1-1-0-------------------0-----0h1-1-0---------|
G |-------2-------2-----------2-----------2-------2-----------------|
D |-----2-------------------------------2---------------------------|
A |-0-------------------------------0-------------------------------|
E |-----------------------------------------------------------------|



CHORUS:


   Em  C   D   G   C   D   G>G/E  Em  C   D   D   Em

E |-0-|-0-|-2-|-3-|-0-|-2-|-3--2-|-0-|-0-|-2-|-2-|-0-|
B |-0-|-1-|-3-|-0-|-1-|-3-|-0--0-|-0-|-1-|-3-|-3-|-0-|
G |-0-|-0-|-2-|-0-|-0-|-2-|-0--0-|-0-|-0-|-2-|-2-|-0-|
D |-2-|-2-|-0-|-0-|-2-|-0-|-0--0-|-2-|-2-|-0-|-0-|-2-|
A |-2-|-3-|-0-|-2-|-3-|-0-|-2--2-|-2-|-3-|-0-|-0-|-2-|
E |-0-|---|---|-3-|---|---|-3--0-|-0-|---|---|---|-0-|



VERSE (strum):


   [Em]                            [C]

    o . . . o . . . o . . . o . . . o . . . o . . . o . . . o . . .
E |-0-------------------------------0-------------------------------|
B |-0-------------------------------1-------------------------------|
G |-0-------------------------------0-------------------------------|
D |-2-------------------------------2-------------------------------|
A |-2-------------------------------3-------------------------------|
E |-0---------------------------------------------------------------|


   [D]                             [Cmaj7]

    o . . . o . . . o . . . o . . . o . . . o . . . o . . . o . . .
E |-2-------------------------------0-------------------------------|
B |-3-------------------------------0-------------------------------|
G |-2-------------------------------0-------------------------------|
D |-0-------------------------------2-------------------------------|
A |-0-------------------------------3-------------------------------|
E |-----------------------------------------------------------------|


   [Em]                            [C]

    o . . . o . . . o . . . o . . . o . . . o . . . o . . . o . . .
E |-0-------------------------------0-------------------------------|
B |-0-------------------------------1-------------------------------|
G |-0-------------------------------0-------------------------------|
D |-2-------------------------------2-------------------------------|
A |-2-------------------------------3-------------------------------|
E |-0---------------------------------------------------------------|


   [D]                              [Cmaj7]

    o . . . o . . . o . . . o . . . o . . . o . . . o . . . o . . .
E |-2-------------------------------0-------------------------------|
B |-3-------------------------------0-------------------------------|
G |-2-------------------------------0-------------------------------|
D |-0-------------------------------2-------------------------------|
A |-0-------------------------------3-------------------------------|
E |-----------------------------------------------------------------|



   [Asus2]

    o . . . o . . . o . . . o . . . o . . . o . . . o . . . o . . .
E |-0---------------------------------------------------------------|
B |-0---------------------------------------------------------------|
G |-2---------------------------------------------------------------|
D |-2---------------------------------------------------------------|
A |-0---------------------------------------------------------------|
E |-----------------------------------------------------------------|
  |
  |
  | guitar 2
  |
  | o . . . o . . . o . . . o . . . o . . . o . . . o . . . o . . .
E |-----------------------------------------------------------------|
B |-----------0-----0h1-1-0-------------------0-----0h1-1-0---------|
G |-------2-------2-----------2-----------2-------2-----------------|
D |-----2-------------------------------2---------------------------|
A |-0-------------------------------0-------------------------------|
E |-----------------------------------------------------------------|



CHORUS:


   Em  C   D   G   C   D   G>G/E  Em  C   D   D

E |-0-|-0-|-2-|-3-|-0-|-2-|-3--2-|-0-|-0-|-2-|-2-|
B |-0-|-1-|-3-|-0-|-1-|-3-|-0--0-|-0-|-1-|-3-|-3-|
G |-0-|-0-|-2-|-0-|-0-|-2-|-0--0-|-0-|-0-|-2-|-2-|
D |-2-|-2-|-0-|-0-|-2-|-0-|-0--0-|-2-|-2-|-0-|-0-|
A |-2-|-3-|-0-|-2-|-3-|-0-|-2--2-|-2-|-3-|-0-|-0-|
E |-0-|---|---|-3-|---|---|-3--0-|-0-|---|---|---|



INTRO RIFF:


    guitar 1 (strum chords)

    o . . . o . . . o . . . o . . . o . . . o . . . o . . . o . . .
E |-----------------------------------------------------------------|
B |-----------------------------------------------------------------|
G |-----------------------------------------------------------------|
D |-[Em]----------------------------[C]-----------------------------|
A |-----------------------------------------------------------------|
E |-----------------------------------------------------------------|
  |
  |
  | guitar 2 (solo guitar)
  |
  | o . . . o . . . o . . . o . . . o . . . o . . . o . . . o . . .
E |-----------------------------------------------------------------|
B |-----------------------------------------------------------------|
G |-----------------------------------------------------------------|
D |---------------4/5---4---5---4-------2-----------2---4-4/5---4---|
A |-----------------------------------------------------------------|
E |-----------------------------------------------------------------|
  |
  |
  | guitar 3 (high notes fill)
  |
  | o . . . o . . . o . . . o . . . o . . . o . . . o . . . o . . .
E |-------------10--------------------------------------------------|
B |-----7-h-8-------------------------------------------------------|
G |-9---------------------------------------------------------------|
D |-----------------------------------------------------------------|
A |-----------------------------------------------------------------|
E |-----------------------------------------------------------------|



    guitar 1

    o . . . o . . . o . . . o . . . o . . . o . . . o . . . o . . .
E |-----------------------------------------------------------------|
B |-----------------------------------------------------------------|
G |-----------------------------------------------------------------|
D |-[D]-----------------------------[C]-----------------------------|
A |-----------------------------------------------------------------|
E |-----------------------------------------------------------------|
  |
  |
  | guitar 2
  |
  | o . . . o . . . o . . . o . . . o . . . o . . . o . . . o . . .
E |-----------------------------------------------------------------|
B |-----------------------------------------------------------------|
G |-----------------------------------------------------------------|
D |-----------------------------------------------------------------|
A |-----------------------------------2-3-5-3-2-0-----0-------------|
E |-----------------------------------------------2h3---3---2b3r2---|
  |
  |
  | guitar 3
  |
  | o . . . o . . . o . . . o . . . o . . . o . . . o . . . o . . .
E |-------------10--------------------------------------------------|
B |-----7-h-8-------------------------------------------------------|
G |-9---------------------------------------------------------------|
D |-----------------------------------------------------------------|
A |-----------------------------------------------------------------|
E |-----------------------------------------------------------------|



    guitar 1

    o . . . o . . . o . . . o . . . o . . . o . . . o . . . o . . .
E |-----------------------------------------------------------------|
B |-----------------------------------------------------------------|
G |-----------------------------------------------------------------|
D |-[Em]----------------------------[C]-----------------------------|
A |-----------------------------------------------------------------|
E |-----------------------------------------------------------------|
  |
  |
  | guitar 2
  |
  | o . . . o . . . o . . . o . . . o . . . o . . . o . . . o . . .
E |-----------------------------------------------------------------|
B |-----------------------------------------------------------------|
G |-----------------------------------------------------------------|
D |---------------4/5---4---5---4-------2-----------2---4-4/5---4---|
A |-----------------------------------------------------------------|
E |-0---------------------------------------------------------------|
  |
  |
  | guitar 3
  |
  | o . . . o . . . o . . . o . . . o . . . o . . . o . . . o . . .
E |-------------10--------------------------------------------------|
B |-----7-h-8-------------------------------------------------------|
G |-9---------------------------------------------------------------|
D |-----------------------------------------------------------------|
A |-----------------------------------------------------------------|
E |-----------------------------------------------------------------|



    guitar 1

    o . . . o . . . o . . . o . . . o . . . o . . . o . . . o . . .
E |-----------------------------------------------------------------|
B |-----------------------------------------------------------------|
G |-----------------------------------------------------------------|
D |-[D]-----------------------------[C]-----------------------------|
A |-----------------------------------------------------------------|
E |-----------------------------------------------------------------|
  |
  |
  | guitar 2
  |
  | o . . . o . . . o . . . o . . . o . . . o . . . o . . . o . . .
E |-----------------------------------------------------------------|
B |-----------------------------------------------------------------|
G |-----------------------------------------------------------------|
D |-----------------------------------------------------------------|
A |-----------------------------------------------------------------|
E |-----------------------------------------------------------------|
  |
  |
  | guitar 3
  |
  | o . . . o . . . o . . . o . . . o . . . o . . . o . . . o . . .
E |-------------10--------------------------------------------------|
B |-----7-h-8-------------------------------------------------------|
G |-9---------------------------------------------------------------|
D |-----------------------------------------------------------------|
A |-----------------------------------------------------------------|
E |-----------------------------------------------------------------|



BRIDGE:


   Am  Em  D   C   Am  Em  D   C hold...

E |-0-|-0-|-2-|-0-|-0-|-0-|-2-|-0-|
B |-1-|-0-|-3-|-1-|-1-|-0-|-3-|-1-|
G |-2-|-0-|-2-|-0-|-2-|-0-|-2-|-0-|
D |-2-|-2-|-0-|-2-|-2-|-2-|-0-|-2-|
A |-0-|-2-|-0-|-3-|-0-|-2-|-0-|-3-|
E |---|-0-|---|---|---|-0-|---|---|



CHORUS:


   Em  C   D   G   C   D   G>G/E  Em  C   D   D

E |-0-|-0-|-2-|-3-|-0-|-2-|-3--2-|-0-|-0-|-2-|-2-|
B |-0-|-1-|-3-|-0-|-1-|-3-|-0--0-|-0-|-1-|-3-|-3-|
G |-0-|-0-|-2-|-0-|-0-|-2-|-0--0-|-0-|-0-|-2-|-2-|
D |-2-|-2-|-0-|-0-|-2-|-0-|-0--0-|-2-|-2-|-0-|-0-|
A |-2-|-3-|-0-|-2-|-3-|-0-|-2--2-|-2-|-3-|-0-|-0-|
E |-0-|---|---|-3-|---|---|-3--0-|-0-|---|---|---|



INTRO RIFF:


    guitar 1 (strum chords)

    o . . . o . . . o . . . o . . . o . . . o . . . o . . . o . . .
E |-----------------------------------------------------------------|
B |-----------------------------------------------------------------|
G |-----------------------------------------------------------------|
D |-[Em]----------------------------[C]-----------------------------|
A |-----------------------------------------------------------------|
E |-----------------------------------------------------------------|
  |
  |
  | guitar 2 (solo guitar)
  |
  | o . . . o . . . o . . . o . . . o . . . o . . . o . . . o . . .
E |-----------------------------------------------------------------|
B |-----------------------------------------------------------------|
G |-----------------------------------------------------------------|
D |---------------4/5---4---5---4-------2-----------2---4-4/5---4---|
A |-----------------------------------------------------------------|
E |-----------------------------------------------------------------|
  |
  |
  | guitar 3 (high notes fill)
  |
  | o . . . o . . . o . . . o . . . o . . . o . . . o . . . o . . .
E |-------------10--------------------------------------------------|
B |-----7-h-8-------------------------------------------------------|
G |-9---------------------------------------------------------------|
D |-----------------------------------------------------------------|
A |-----------------------------------------------------------------|
E |-----------------------------------------------------------------|



    guitar 1

    o . . . o . . . o . . . o . . . o . . . o . . . o . . . o . . .
E |-----------------------------------------------------------------|
B |-----------------------------------------------------------------|
G |-----------------------------------------------------------------|
D |-[D]-----------------------------[C]-----------------------------|
A |-----------------------------------------------------------------|
E |-----------------------------------------------------------------|
  |
  |
  | guitar 2
  |
  | o . . . o . . . o . . . o . . . o . . . o . . . o . . . o . . .
E |-----------------------------------------------------------------|
B |-----------------------------------------------------------------|
G |-----------------------------------------------------------------|
D |-----------------------------------------------------------------|
A |-----------------------------------2-3-5-3-2-0-----0-------------|
E |-----------------------------------------------2h3---3---2b3r2---|
  |
  |
  | guitar 3
  |
  | o . . . o . . . o . . . o . . . o . . . o . . . o . . . o . . .
E |-------------10--------------------------------------------------|
B |-----7-h-8-------------------------------------------------------|
G |-9---------------------------------------------------------------|
D |-----------------------------------------------------------------|
A |-----------------------------------------------------------------|
E |-----------------------------------------------------------------|



    guitar 1

    o . . . o . . . o . . . o . . . o . . . o . . . o . . . o . . .
E |-----------------------------------------------------------------|
B |-----------------------------------------------------------------|
G |-----------------------------------------------------------------|
D |-[Em]----------------------------[C]-----------------------------|
A |-----------------------------------------------------------------|
E |-----------------------------------------------------------------|
  |
  |
  | guitar 2
  |
  | o . . . o . . . o . . . o . . . o . . . o . . . o . . . o . . .
E |-----------------------------------------------------------------|
B |-----------------------------------------------------------------|
G |-----------------------------------------------------------------|
D |---------------4/5---4---5---4-------2-----------2---4-4/5---4---|
A |-----------------------------------------------------------------|
E |-0---------------------------------------------------------------|
  |
  |
  | guitar 3
  |
  | o . . . o . . . o . . . o . . . o . . . o . . . o . . . o . . .
E |-------------10--------------------------------------------------|
B |-----7-h-8-------------------------------------------------------|
G |-9---------------------------------------------------------------|
D |-----------------------------------------------------------------|
A |-----------------------------------------------------------------|
E |-----------------------------------------------------------------|



    guitar 1

    o . . . o . . . o . . . o . . . o . . . o . . . o . . . o . . .
E |-----------------------------------------------------------------|
B |-----------------------------------------------------------------|
G |-----------------------------------------------------------------|
D |-[D]-----------------------------[C]-----------------------------|
A |-----------------------------------------------------------------|
E |-----------------------------------------------------------------|
  |
  |
  | guitar 2
  |
  | o . . . o . . . o . . . o . . . o . . . o . . . o . . . o . . .
E |-----------------------------------------------------------------|
B |-----------------------------------------------------------------|
G |-----------------------------------------------------------------|
D |-----------------------------------------------------------------|
A |-----------------------------------------------------------------|
E |-----------------------------------------------------------------|
  |
  |
  | guitar 3
  |
  | o . . . o . . . o . . . o . . . o . . . o . . . o . . . o . . .
E |-------------10--------------------------------------------------|
B |-----7-h-8-------------------------------------------------------|
G |-9---------------------------------------------------------------|
D |-----------------------------------------------------------------|
A |-----------------------------------------------------------------|
E |-----------------------------------------------------------------|


    o . . . o . . . o . . . o . . . o . . . o . . . o . . . o . . .
E |------0----------------------------------------------------------|
B |-----0-----------------------------------------------------------|
G |----0------------------------------------------------------------|
D |---2-------------------------------------------------------------|
A |--2--------------------------------------------------------------|
E |-0---------------------------------------------------------------|


-----------------------------------------------------------------------------------------------


Kinda lose your sense of time
Cause the days don't matter no more
All the feelings that you hide
Gonna tear you up inside
You hope she knows you tried
Follows you around all day
And you wake up soaking wet
Cause between this world and eternity
There is a face you hope to see

You know where you've sent her
You sure know where you are
You're trying to ease off
But you know you won't get far
And now she's up there, sings like an angel
But you can't hear those words
And now she's up there, sings like an angel
Unforgivable sinner

You've been walking around in tears
No answers are there to get
You won't ever be the same
Someone cries and you're to blame
Struggling with a fight inside
Sorrow you'll defeat
The picture you see it won't dissapear
Not unplesant dreams or her voice you hear

You know where you've sent her
Cause you sure know where you are
You're trying to ease off
But you know you won't get far
And now she's up there, sings like an angel
But you can't hear those words
And now she's up there, sings like an angel
Unforgivable sinner

Maybe one time lost
But now you're found
Stand right up before you hit the ground
Maybe one time lost
But now you're found
Stand right up before you hit the ground
Hit the ground

You know where you've sent her
Cause you sure know where you are
You're trying to ease off
But you know you won't get far
And now she's up there, sings like an angel
But you can't hear those words
And now she's up there, sings like an angel
Unforgivable sinner

            
            
Suggest correction
Creating personal tab
Creating personal tab
You can edit any tab online and save it as your Personal.

You can edit, replace or remove any tab part or add personal notes – all changes will be seen only by you.

Personal tabs can be accessed anytime from any device, even offline.
Learn more »
Give kudos to tab author, rate the tab!
1 2 3 4 5
comments
print report bad tab
guest
You may want to rate the tab now too:
select rating
Wanna post a correction for this tab? Suggest correction