Oops, an error
Loading. Please wait.

Ill Be Waiting tab

version 2
version 2

Whole song

Interactive

34,336 views 66 this week
2 commentsread comments
1 2 3 4 5
x 6
add to favorites
×
Save as Personal and add changes to this tab that will be seen only by you. Learn more ›
×
You can save this tab as Personal to edit and correct it or add notes. All changes will be seen only by you. Learn more »
launch autoscroll
font size
0
reset
how to read this tab
guitar tuner
backing track
0:00
0:00
edit
Autoscroll
slow
fast
+/-
esc
set tempo
stop
Artist: Lenny Kravitz
Song: I'll Be Waiting
Album: It Is Time For A Love Revolution


This guitar was not tabbed out by me but by Xavier. So credit goes to him and his
awesome Youtube video( http://youtube.com/watch?v=GOscZ9rKxJ4). =)
 

INTRO:
   Dm7               D#                  Bb        Bb
e|-----------------------------------------------------------------|
B|---------6h8p6-----------------------------------6---6-----------|
G|---------------5----------8h10-8-------------7---7h8-7--------8--|
D|-----7-----------7--------8h10-8---------------8-------8------8--|
A|-5-----------------6-8s10--------10\------8--------------8s10----|
E|--------------------------------------/6-------------------------|
|         |         |      |            |         |

   Dm7               D#                  Bb             F
e|------------------------------------------6---6-----------------------|
B|---------6h8p6----------------------------6h8-6---6---10----10-10-----|
G|---------------5----------8h10-8------------------7h8-10----10-10-----|
D|-----7-----------7--------8h10-8----------------------10----10-10-----|
A|-5-----------------6-8s10--------10\------------------8---8-----------|
E|--------------------------------------/6------------------------------|
|         |         |      |            |             |


VERSE:
   Dm7               D#                  Bb        Bb
e|-----------------------------------------------------------------|
B|---------6h8p6-------------------------------6---6---6-----------|
G|---------------5----------8h10-8----------7------7h8-7--------8\-|
D|-----7-----------7--------8h10-8---------------8-------8------8\-|
A|-5-----------------6-8s10--------10\---------------------8s10----|
E|--------------------------------------/6-------------------------|
|         |         |      |            |         |
                   He broke your heart          He took your soul

   Dm7               D#                  Bb             F
e|--------------------------------------------------------------------|
B|---------6h8p6-------------------------------6---6---6--------------|
G|---------------5----------8h10-8-------------7---7h8-7-----10-------|
D|-----7-----------7--------8h10-8----------8----8-----------12p10----|
A|-5-----------------6-8s10--------10\-------------------/12-------12-|
E|--------------------------------------/6----------------------------|
|         |         |      |            |         |
              You're hurt inside            'Cause there's a hole

   Dm7               D#                  Bb        Bb
e|-----------------------------------------6s8s6-------------------|
B|---------6h8p6---------------------------6s8s6----------6--------|
G|---------------5----------8h10-8--------------------7h8-7--------|
D|-----7-----------7--------8h10-8--------------------------8------|
A|-5-----------------6-8s10--------10\------------------------8----|
E|--------------------------------------/6-------------------------|
|         |         |      |            |         |
                 You need some time             to be alone

   Dm7               D#                  Bb             F
e|-------------------------------------------------------------------|
B|---------6h8p6-------------------------------6---------------------|
G|---------------5----------8h10-8-------------7------------10-------|
D|-----7-----------7--------8h10-8----------8---------------12p10----|
A|-5-----------------6-8s10--------10\--------------8-10s12-------12-|
E|--------------------------------------/6---------------------------|
|         |         |      |            |         |
                then you will find            what you've always known


CHORUS:
   D#maj7                          Gm7
e|-6-------6-------6-------6----------------------------------------------|
B|-8-------8-------8-------8-------------11h13p11-------------10-12-------|
G|-7-------7-------7-------7---------------------10-----------10-12p10----|
D|-8-------8-------8-------8----------12-----------12---10s12----------12-|
A|-6---6---6---6---6---6---6---6---10-----------------8-------------------|
E|------------------------------------------------------------------------|
|         |       |       |       |                  |
                                   I'm the one who really love ya, baby

   D#maj7                          F
e|-6-------6-------6-------6----------------------------------------------|
B|-8-------8-------8-------8-------10------10------10------------10-------|
G|-7-------7-------7-------7-------10------10------10------------10-------|
D|-8-------8-------8-------8-------10------10------10---------------------|
A|-6---6---6---6---6---6---6---6---8---8---8---8---8---8---10s12----------|
E|------------------------------------------------------------------------|
|         |       |       |       |                  |
                                   I've been knockin' at your door

   Dm7               D#                  Bb        Bb
e|-----------------------------------------------------------------|
B|---------6h8p6--------------8----------------6---6-6-6---6-6-6---|
G|-------5-------5----------8-8----------------7---7-8-7---7-8-7---|
D|-----7-----------7--------8---------------8----8-------8---------|
A|-5-----------------6-8s10--------10\-----------------------------|
E|--------------------------------------/6-------------------------|
|         |         |      |            |         |
    and as long as I'm livin'           I'll be waitin'

   Dm7               D#                  Bb        F
e|-----------------------------------------6---6-------------------|
B|---------6h8p6--------------8------------6h8-6-6-10--------------|
G|-------5-------5----------8-8------------------7-10-----------10-|
D|-----7-----------7--------8----------------------10-----------10-|
A|-5-----------------6-8s10--------10\-------------8----8-10s12----|
E|--------------------------------------/6-------------------------|
|         |         |      |            |         |
        as long as I'm breathin'           I'll be there

   Dm7               D#                  Bb        Bb
e|-----------------------------------------------------------------|
B|---------6h8p6--------------8----------------6---6-6-6---6-6-6---|
G|-------5-------5----------8-8----------------7---7-8-7---7-8-7---|
D|-----7-----------7--------8---------------8----8-------8---------|
A|-5-----------------6-8s10--------10\-----------------------------|
E|--------------------------------------/6-------------------------|
|         |         |      |            |         |
       whenever you call me                I'll be waitin'

   Dm7               D#                  Bb        F
e|-----------------------------------------------------------------|
B|---------6h8p6--------------8------------6---6-------------------|
G|-------5-------5----------8-8------------7h8-7------------10-----|
D|-----7-----------7--------8--------------8---8-------10----------|
A|-5-----------------6-8s10--------10\-------------8---------------|
E|--------------------------------------/6-------------------------|
|         |         |      |            |         |
       whenever you need me                   I'll be there


INSTRUMENTAL:
   Dm7               D#                  Bb        Bb
e|-----------------------------------------6s8s6-------6s8s6s8s6---|
B|---------6h8p6---------------------------6s8s6---6---6s8s6s8s6---|
G|---------------5----------8h10-8-----------------7h8-------------|
D|-----7-----------7--------8h10-8---------------------------------|
A|-5-----------------6-8s10--------10\-----------------------------|
E|--------------------------------------/6-------------------------|

            
            
Suggest correction
Creating personal tab
Creating personal tab
You can edit any tab online and save it as your Personal.

You can edit, replace or remove any tab part or add personal notes – all changes will be seen only by you.

Personal tabs can be accessed anytime from any device, even offline.
Learn more »
comments
print report bad tab
2 comments total.
0 reply
kop4 20 Nov 28, 2008 09:21 AM

this tab is awesome! thank you some much!
I`ve been looking for it for a long time, this version of the song is kickass. The link above is dead, just type "i`ll be waiting slow funky"
in the youtube search engine to watch the performance.

+1 reply
george.giurgiu 12 Aug 12, 2017 06:26 AM, edited at 10:55 am

I'm learning this master-piece and I think I have some suggestions for the first intro bar.. I looped the intro's first bar from the unplugged New York USA 2007 version. Please have a look. Thank you.

guest
You may want to rate the tab now too:
select rating
Wanna post a correction for this tab? Suggest correction