Oops, an error
Loading. Please wait.

Ill Be Waiting tab

version 3
version 3

Whole song

Interactive

7,926 views 6 this week
no commentswrite comment
1 2 3 4 5
3 more votes to show rating
add to favorites
×
Save as Personal and add changes to this tab that will be seen only by you. Learn more ›
×
You can save this tab as Personal to edit and correct it or add notes. All changes will be seen only by you. Learn more »
launch autoscroll
font size
0
reset
how to read this tab
guitar tuner
backing track
0:00
0:00
edit
Autoscroll
slow
fast
+/-
esc
set tempo
stop
Author
Difficulty
I'll be Waiting - Lenny Kravitz
Tuning: Standard EADGBe

this is my first tab .. its slightly diferent from the other tab for this song, but this 
just the way I play it. enjoy :)

Piano

Then guitar enters

e|------------------------------------------------------------------|
B|------------------------------------------------------------------|
G|---5h7---5h7--5h7------5h7---5h7--5h7----10-10-10-10--10-10-10-10-|
D|---5-5---5-5--5-5------5-5---5-5--5-5----10-10-10-10--10-10-10-10-|
A|-----------------------------------------8--8--8--8---8--8--8--8--|
E|------------------------------------------------------------------|

Chorus

e|-----------------------------------------------------------------------|
B|-----------------------------------------------------------------------|
G|-7-7-7-7-8-8-8-8-3-3-3-3-3-3-3-3-7-7-7-7-8-8-8-8-3-3-3-3-10-10-10-10---|
D|-7-7-7-7-8-8-8-8-3-3-3-3-3-3-3-3-7-7-7-7-8-8-8-8-3-3-3-3-10-10-10-10---|
A|-5-5-5-5-6-6-6-6-1-1-1-1-1-1-1-1-5-5-5-5-6-6-6-6-1-1-1-1-8--8--8--8----|
E|-----------------------------------------------------------------------|

Piano part again

e|------------------------------------------------------------------|
B|------------------------------------------------------------------|
G|---5h7---5h7--5h7------5h7---5h7--5h7----10-10-10-10--10-10-10-10-|
D|---5-5---5-5--5-5------5-5---5-5--5-5----10-10-10-10--10-10-10-10-|
A|-----------------------------------------8--8--8--8---8--8--8--8--|
E|------------------------------------------------------------------|

Repeat Chorus

e|-----------------------------------------------------------------------|
B|-----------------------------------------------------------------------|
G|-7-7-7-7-8-8-8-8-3-3-3-3-3-3-3-3-7-7-7-7-8-8-8-8-3-3-3-3-10-10-10-10---|
D|-7-7-7-7-8-8-8-8-3-3-3-3-3-3-3-3-7-7-7-7-8-8-8-8-3-3-3-3-10-10-10-10---|
A|-5-5-5-5-6-6-6-6-1-1-1-1-1-1-1-1-5-5-5-5-6-6-6-6-1-1-1-1-8--8--8--8----|
E|-----------------------------------------------------------------------|

e|-----------------------------------------------------------------------|
B|-----------------------------------------------------------------------|
G|-7-7-7-7-8-8-8-8-3-3-3-3-3-3-3-3-7-7-7-7-8-8-8-8-3-3-3-3-10-10-10-10---|
D|-7-7-7-7-8-8-8-8-3-3-3-3-3-3-3-3-7-7-7-7-8-8-8-8-3-3-3-3-10-10-10-10---|
A|-5-5-5-5-6-6-6-6-1-1-1-1-1-1-1-1-5-5-5-5-6-6-6-6-1-1-1-1-8--8--8--8----|
E|-----------------------------------------------------------------------|

e|-------------------------------------------------------------------|
B|-------------------------------------------------------------------|
G|-8-8-8-8-3-3-3-3-10-10-10-10-8-8-8-8-7-7-7-7-5-5-5-5-3-5-3-5-3-5-7-|
D|-8-8-8-8-3-3-3-3-10-10-10-10-8-8-8-8-7-7-7-7-5-5-5-5-3-5-3-5-3-5-7-|
A|-6-6-6-6-1-1-1-1-8--8--8--8--6-6-6-6-5-5-5-5-3-3-3-3-1-3-1-3-1-3-5-|
E|-------------------------------------------------------------------|

e|---------------------------------------------------------------------------------------|
B|---------------------------------------------------------------------------------------|
G|-8-8-8-8-7-7-7-7-5-5-5-5-3-5-3-5-3-5-7-10-10-10-10-10-10-10-10-10-10-10-10-10-10-10-10-|
D|-8-8-8-8-7-7-7-7-5-5-5-5-3-5-3-5-3-5-7-10-10-10-10-10-10-10-10-10-10-10-10-10-10-10-10-|
A|-6-6-6-6-5-5-5-5-3-3-3-3-1-3-1-3-1-3-5-8--8--8--8--8--8--8--8--8--8--8--8--8--8--8--8--|
E|---------------------------------------------------------------------------------------|

Then piano again

e|-----------------------------------------------------------------------|
B|-----------------------------------------------------------------------|
G|-7-7-7-7-8-8-8-8-3-3-3-3-3-3-3-3-7-7-7-7-8-8-8-8-3-3-3-3-10-10-10-10---|
D|-7-7-7-7-8-8-8-8-3-3-3-3-3-3-3-3-7-7-7-7-8-8-8-8-3-3-3-3-10-10-10-10---|
A|-5-5-5-5-6-6-6-6-1-1-1-1-1-1-1-1-5-5-5-5-6-6-6-6-1-1-1-1-8--8--8--8----|
E|-----------------------------------------------------------------------|

e|-----------------------------------------------------------------------|
B|-----------------------------------------------------------------------|
G|-7-7-7-7-8-8-8-8-3-3-3-3-3-3-3-3-7-7-7-7-8-8-8-8-3-3-3-3-10-10-10-10---|
D|-7-7-7-7-8-8-8-8-3-3-3-3-3-3-3-3-7-7-7-7-8-8-8-8-3-3-3-3-10-10-10-10---|
A|-5-5-5-5-6-6-6-6-1-1-1-1-1-1-1-1-5-5-5-5-6-6-6-6-1-1-1-1-8--8--8--8----|
E|-----------------------------------------------------------------------|

e|-----------------------------------------------------------------------|
B|-----------------------------------------------------------------------|
G|-7-7-7-7-8-8-8-8-3-3-3-3-3-3-3-3-7-7-7-7-8-8-8-8-3-3-3-3-10-10-10-10---|
D|-7-7-7-7-8-8-8-8-3-3-3-3-3-3-3-3-7-7-7-7-8-8-8-8-3-3-3-3-10-10-10-10---|
A|-5-5-5-5-6-6-6-6-1-1-1-1-1-1-1-1-5-5-5-5-6-6-6-6-1-1-1-1-8--8--8--8----|
E|-----------------------------------------------------------------------|

e|-----------------------------------------------------------------------|
B|-----------------------------------------------------------------------|
G|-7-7-7-7-8-8-8-8-3-3-3-3-3-3-3-3-7-7-7-7-8-8-8-8-3-3-3-3-10-10-10-10---|
D|-7-7-7-7-8-8-8-8-3-3-3-3-3-3-3-3-7-7-7-7-8-8-8-8-3-3-3-3-10-10-10-10---|
A|-5-5-5-5-6-6-6-6-1-1-1-1-1-1-1-1-5-5-5-5-6-6-6-6-1-1-1-1-8--8--8--8----|
E|-----------------------------------------------------------------------|


h -> hammer on

            
            
Suggest correction
Creating personal tab
Creating personal tab
You can edit any tab online and save it as your Personal.

You can edit, replace or remove any tab part or add personal notes – all changes will be seen only by you.

Personal tabs can be accessed anytime from any device, even offline.
Learn more »
Give kudos to tab author, rate the tab!
1 2 3 4 5
comments
print report bad tab
guest
You may want to rate the tab now too:
select rating
Wanna post a correction for this tab? Suggest correction