Oops, an error
Loading. Please wait.

Fire chords

343 views 1 this week
no commentswrite comment
1 2 3 4 5
3 more votes to show rating
add to favorites
×
Save as Personal and add changes to this tab that will be seen only by you. Learn more ›
×
You can save this tab as Personal to edit and correct it or add notes. All changes will be seen only by you. Learn more »
launch autoscroll
font size
0
reset
transpose
0
reset
simplify chords
display chords
guitar tuner
edit
Autoscroll
slow
fast
+/-
esc
set tempo
stop
Strumming
There is no strumming pattern for this song yet. and get +5 IQ
Fire by Lera Lynn from the album called Lying in the Sun (2014)

Capo 3rd fret

[Intro]
      G
e|---------------------------------------------------------------------------|
B|---------------------------------------------------------------------------|
G|---------------------------------------------------------------------------|
D|------------5-----------5--------------------------------------------------|   x 3
A|--------5-----------5-------------5----------------------------------------|
E|----3-----------0-------------0--------------------------------------------|

[Verse 1]

I'm drivin' in my car, I turn on the radio
      G
e|---------------------------------------------------------------------------|
B|---------------------------------------------------------------------------|
G|---------------------------------------------------------------------------|
D|------------5-----------5--------------------------------------------------|  x4
A|--------5-----------5-------------5----------------------------------------|
E|----3-----------0-------------0--------------------------------------------|

I'm pullin' you close, You just say no
      A
e|---------------------------------------------------------------------------|
B|---------------------------------------------------------------------------|
G|---------------------------------------------------------------------------|
D|------------7-----------7--------------------------------------------------|  x2
A|--------7-----------7-------------7----------------------------------------|
E|----5-----------0-------------0--------------------------------------------|
      G
e|---------------------------------------------------------------------------|
B|---------------------------------------------------------------------------|
G|---------------------------------------------------------------------------|
D|------------5-----------5--------------------------------------------------|  x2
A|--------5-----------5-------------5----------------------------------------|
E|----3-----------0-------------0--------------------------------------------|

You say you don't like it, but, girl, I know you're a liar
      A
e|---------------------------------------------------------------------------|
B|---------------------------------------------------------------------------|
G|---------------------------------------------------------------------------|
D|------------7-----------7--------------------------------------------------|  x2
A|--------7-----------7-------------7----------------------------------------|
E|----5-----------0-------------0--------------------------------------------|
      G
e|---------------------------------------------------------------------------|
B|---------------------------------------------------------------------------|
G|---------------------------------------------------------------------------|
D|------------5-----------5--------------------------------------------------|  x2
A|--------5-----------5-------------5----------------------------------------|
E|----3-----------0-------------0--------------------------------------------|
 
C/G
'Cause when we kiss
D
Oh, fire

      G
e|---------------------------------------------------------------------------|
B|---------------------------------------------------------------------------|
G|---------------------------------------------------------------------------|
D|------------5-----------5--------------------------------------------------|   x 3
A|--------5-----------5-------------5----------------------------------------|
E|----3-----------0-------------0--------------------------------------------|

[Verse 2] - same as [Verse 1]

        G
Late at night
        G
I'm takin' you home
          A
I say I wanna stay 
          G
You say you wanna be alone
                 A
You say you don't love me
                    G
But you can't hide your desire
C/G
'Cause when we kiss
D    G
Oh, fire
G
Fire

[Chorus]
          C                G
You had a hold on me right from the start
  D                        G
A grip so tight I couldn't tear it apart
C/G                        G
Nerves all jumpin', actin' like a fool
     A
Your kisses, they burn
         D
But your heart stays cool

[Verse 3] 
          G
Romeo and Juliet
          G
Samson and Deliliah 
         A                           G
You can bet, their love, they didn't deny
               A
Your words say split
               G
But your words, they lie

C/G
'Cause when we kiss
D    G
Oh, fire
     G
Oh, fire

[Chorus]

          C                G
You had a hold on me right from the start
  D                        G
A grip so tight I couldn't tear it apart
C/G                        G
Nerves all jumpin', actin' like a fool
     A
Your kisses, they burn
         D
But your heart stays cool

[Verse 4]

          G
Romeo and Juliet
          G
Samson and Deliliah 
         A                           G
You can bet, their love, they didn't deny
               A
Your words say split
               G
But your words, they lie

C/G
'Cause when we kiss
D    G
Oh, fire
G
Fire
Fire
Oh, fire
Oh, fiiiire

            
            
Suggest correction
Creating personal tab
Creating personal tab
You can edit any tab online and save it as your Personal.

You can edit, replace or remove any tab part or add personal notes – all changes will be seen only by you.

Personal tabs can be accessed anytime from any device, even offline.
Learn more »
Give kudos to tab author, rate the tab!
1 2 3 4 5
comments
print report bad tab
guest
You may want to rate the tab now too:
select rating
Wanna post a correction for this tab? Suggest correction