Oops, an error
Loading. Please wait.

All My Best Friends Are Metalheads bass

version 2
version 2

Whole song

Interactive

15,072 views 9 this week
3 commentsread comments
1 2 3 4 5
x 12
add to favorites
×
Save as Personal and add changes to this tab that will be seen only by you. Learn more ›
×
You can save this tab as Personal to edit and correct it or add notes. All changes will be seen only by you. Learn more »
launch autoscroll
font size
0
reset
guitar tuner
edit
Autoscroll
slow
fast
+/-
esc
set tempo
stop
                  ALL MY BEST FRIENDS ARE METALHEADS (Bassline)
                          As recorded by Less Than Jake
                      (From the 1998 Album HELLO ROCKVIEW)

Transcribed by James Godbold

Gtr I (E A D G) - 'Untitled'

 Intro
  Q=186
 4/4
  Gtr I
  Q  H.        W          Q  H.        W
|------------|----------|------------|------|
|------------|----------|------------|------|
|------------|----------|------------|------|
|-0----------|----------|-0----------|------|


  Q  H.        W          E E E E +E  E E E   +W
|------------|----------|-------------------|--------|
|------------|----------|-------------------|--------|
|------------|----------|-4-4-4-4-(4)-4-4---|--------|
|-0----------|----------|-----------------5-|-(5)----|


   Verse
    E E E E +E  E E E   E E E E E E E E
||------1---------1---|-----------------|
||o-2-2---2-(2)-2---2-|-------------1---|
||o-------------------|-0-0-4-0-2-2---2-|
||--------------------|-----------------|


  E E E E +E  E E E   +E  E E E E E E E
|---1-2-4-(4)-2-1-2-|-(2)-1--------------|
|-2-----------------|-------4-2-4-2-1----|
|-------------------|-----------------2--|
|-------------------|--------------------|


  E E E E +E  E E E   E E E E E E E E   E E E E +E  E E E   Q  Q  Q  Q
|-----1---------1---|-----6-------4---|-----1---------1---|--------------||
|-2-2---2-(2)-2---2-|-----------------|-2-2---2-(2)-2---2-|-------------o||
|-------------------|-0-0---0-2-2---2-|-------------------|-0-----2-----o||
|-------------------|-----------------|-------------------|--------------||


 Pre-Chorus
  E E E E E E E E   E E E E E E E E   E E E E E E E E   E E E E E E E E
|-----------------|-----------------|-----------------|-----------------|
|-----------------|-----6-6-7-7-9-9-|-----7-7-6-6-4-4-|-2-2-0-0---------|
|-----4-4-5-5-6-6-|-7-7-------------|-----------------|---------4-4-2-2-|
|-5-5-------------|-----------------|-5-5-------------|-----------------|


  E E E E E E E E   E E E E E E E E   Q  Q  Q  Q    Q  Q  Q  Q
|-----------------|-----------------|-------------|-------------||
|-----------------|-----6-6-7-7-9-9-|----9-----9--|-------------||
|-----4-4-5-5-6-6-|-7-7-------------|-------------|-------------||
|-5-5-------------|-----------------|-7-----7-----|-7--7--7--7--||


 Chorus
  Q  Q  Q.   E   +E  E Q  H      Q  Q  Q.   E   +E  E Q  H
|--------------|---------------|--------------|---------------|
|--------------|---------------|--------------|---------------|
|--------------|----------2----|--------------|----------2----|
|-0--4--5----5-|-(5)-4-2-------|-0--4--5----5-|-(5)-4-2-------|


  Q  Q  Q.   E   +E  E Q  Q  Q    W          +W
|--------------|----------------|----------|--------|
|--------------|----------------|----------|--------|
|--------------|----------2--2--|-0--------|-(0)----|
|-0--4--5----5-|-(5)-4-2--------|----------|--------|


  W          +W
|----------|--------||
|----------|--------||
|-0--------|-(0)----||
|----------|--------||


 Verse
  Wx4
|--------|
|--------|
|--------|
|--------|


  E E E E +E  E E E   E E E E E E E E   E E E E +E  E E E   Q  Q  Q  Q
|-----1---------1---|-----------------|-----1---------1---|----6-----4--||
|-2-2---2-(2)-2---2-|-------------1---|-2-2---2-(2)-2---2-|-------------||
|-------------------|-0-0-4-0-2-2---2-|-------------------|-0-----2-----||
|-------------------|-----------------|-------------------|-------------||


  E E E E +E  E E E   E E E E E E E E   E E E E +E  E E E   +E  E E E E E E E
|-----1---------1---|-----------------|---1-2-4-(4)-2-1-2-|-(2)-1-------------|
|-2-2---2-(2)-2---2-|-------------1---|-2-----------------|-------4-2-4-2-1---|
|-------------------|-0-0-4-0-2-2---2-|-------------------|-----------------2-|
|-------------------|-----------------|-------------------|-------------------|


  E E E E +E  E E E   E E E E E E E E   E E E E +E  E E E   Q  Q  Q  Q
|-----1---------1---|-----6-------4---|-----1---------1---|-------------||
|-2-2---2-(2)-2---2-|-----------------|-2-2---2-(2)-2---2-|-------------||
|-------------------|-0-0---0-2-2---2-|-------------------|-0-----2-----||
|-------------------|-----------------|-------------------|-------------||


 Pre-Chorus
  E E E E E E E E   E E E E E E E E   E E E E E E E E   E E E E E E E E
|-----------------|-----------------|-----------------|-----------------|
|-----------------|-----6-6-7-7-9-9-|-----7-7-6-6-4-4-|-2-2-0-0---------|
|-----4-4-5-5-6-6-|-7-7-------------|-----------------|---------4-4-2-2-|
|-5-5-------------|-----------------|-5-5-------------|-----------------|


  E E E E E E E E   E E E E E E E E   Q  Q  Q  Q    Q  Q  Q  Q
|-----------------|-----------------|-------------|-------------||
|-----------------|-----6-6-7-7-9-9-|----9-----9--|-------------||
|-----4-4-5-5-6-6-|-7-7-------------|-------------|-------------||
|-5-5-------------|-----------------|-7-----7-----|-7--7--7--7--||


   Chorus
    Q  Q  Q.   E   +E  E Q  H      Q  Q  Q.   E   +E  E Q  H
||---------------|---------------|--------------|---------------|
||o--------------|---------------|--------------|---------------|
||o--------------|----------2----|--------------|----------2----|
||--0--4--5----5-|-(5)-4-2-------|-0--4--5----5-|-(5)-4-2-------|


  Q  Q  Q.   E   +E  E Q  Q  Q    W          +W
|--------------|----------------|----------|---------||
|--------------|----------------|----------|--------o||
|--------------|----------2--2--|-0--------|-(0)----o||
|-0--4--5----5-|-(5)-4-2--------|----------|---------||


 Interlude
  W          +W           Q  H.        W
|----------|------------|------------|------|
|----------|------------|------------|------|
|-0--------|-(0)--------|------------|------|
|----------|------------|-0----------|------|


  W          W          Q  H.        W
|----------|----------|------------|------|
|----------|----------|------------|------|
|----------|----------|------------|------|
|----------|----------|-0----------|------|


  E E E E +E  E E E   +W
|-------------------|--------||
|-------------------|--------||
|-4-4-4-4-(4)-4-4---|--------||
|-----------------5-|-(5)----||


    Q  Q  E E E E   +E  E Q  E E E E   Q  Q  E E E E   +E  E E E E E E E
||----------------|------------------|---------------|---------------------||
||o---------------|------------------|---------------|--------------------o||
||o-7--7--7-7-7-6-|-(6)-6-6--6-6-6-6-|-4--4--4-4-4---|-------4-4-5-5-6-6--o||
||----------------|------------------|-------------5-|-(5)-5---------------||


 Pre-Chorus
  Wx6          H    H      Q  Q  Q  Q
|------------|-----------|-------------|
|------------|-----------|-------------|
|------------|-----------|-------------|
|------------|-7----7----|-7--7--7--7--|


 Chorus
  Q  Q  Q.   E   +E  E Q  H      Q  Q  Q.   E   +E  E Q  H
|--------------|---------------|--------------|---------------|
|--------------|---------------|--------------|---------------|
|--------------|----------2----|--------------|----------2----|
|-0--4--5----5-|-(5)-4-2-------|-0--4--5----5-|-(5)-4-2-------|


  Q  Q  Q.   E   +E  E Q  Q  Q    Q  E E E E E E   Q  E E E E E E
|--------------|----------------|----------------|----------------||
|--------------|----------------|----------------|----------------||
|--------------|----------2--2--|-0--0-0-0-0-0-0-|-0--0-0-0-0-0-0-||
|-0--4--5----5-|-(5)-4-2--------|----------------|----------------||


 Out-Chorus
  Q  Q  Q.   E   +E  E Q  H      Q  Q  Q.   E   +E  E Q  H
|--------------|---------------|--------------|---------------|
|--------------|---------------|--------------|---------------|
|----1--2----2-|-(2)-1----4----|----1--2----2-|-(2)-1----4----|
|-2------------|-------4-------|-2------------|-------4-------|


  Q  Q  Q.   E   +E  E Q  H      Q  Q  Q.   E   +E  E Q  H
|--------------|---------------|--------------|---------------|
|--------------|---------------|-4--4---------|---------------|
|----1--2----2-|-(2)-1----4----|-------2----2-|-(2)-2-2--4----|
|-2------------|-------4-------|--------------|---------------|


  Q  Q  Q.   E   +E  E Q  H      Q  Q  Q.   E   +E  E Q  H
|--------------|---------------|--------------|---------------|
|-4--4---------|---------------|-4--4---------|---------------|
|-------2----2-|-(2)-2-2--4----|-------2----2-|-(2)-2-2--4----|
|--------------|---------------|--------------|---------------|


  Q  Q  Q.   E   +E  Q  E Q  Q    W          +W
|--------------|----------------|----------|--------|
|-4--4---------|----------------|----------|--------|
|-------2----2-|-(2)-2--2-4--4--|-2--------|-(2)----|
|--------------|----------------|----------|--------|


 Outro
  W          +W           W          +W
|----------|------------|----------|--------||
|----------|------------|----------|--------||
|-2--------|-(2)--------|----------|--------||
|----------|------------|-2--------|-(2)----||


  E E E E +E  E E E   +W           +W           +W
|-------------------|------------|------------|--------*|
|-1-1-1-1-(1)-1-1---|------------|------------|--------*|
|-----------------2-|-(2)--------|-(2)--------|-(2)----*|
|-------------------|------------|------------|--------*|


Duration Legend
---------------
W - whole; H - half; Q - quarter; E - 8th; S - 16th; T - 32nd; X - 64th; a - acciaccatura
+ - note tied to previous; . - note dotted; .. - note double dotted
Uncapitalized letters represent notes that are staccato (1/2 duration)
Irregular groupings are notated above the duration line
Duration letters will always appear directly above the note/fret number it represents the
duration for.  Duration letters with no fret number below them represent rests.  Multi-
bar rests are notated in the form Wxn, where n is the number of bars to rest for.  Low
melody durations appear below the staff

Tablature Legend
----------------
(n)  - hold note

Misc Legend
-----------
 |  - bar
||  - double bar
||o - repeat start
o|| - repeat end
*|  - double bar (ending)
 :  - bar (freetime)
 $  - Segno
 &  - Coda
Tempo markers - E/E./Q/Q./H/H. = BPM(8/16=s8/s16), where s8 = swing 8ths, s16 = swing 16ths

            
            
Suggest correction
Creating personal tab
Creating personal tab
You can edit any tab online and save it as your Personal.

You can edit, replace or remove any tab part or add personal notes – all changes will be seen only by you.

Personal tabs can be accessed anytime from any device, even offline.
Learn more »
comments
print report bad tab
3 comments total.
+1 reply
TJ1991 2,071 Mar 02, 2006 04:04 AM

Awesome tab! Spot on all the way through! Well done cos its a damn hard song.

0 reply
6METAL6BASSIST6 [tm] 25,708 Nov 19, 2013 02:27 PM

I've missed this song, thanks for a perfect tab.

0 reply
telenofunken 101 Nov 21, 2013 02:35 PM

imagine to play this and sing at the same time like the bass/singer. so ****ing difficult

guest
You may want to rate the tab now too:
select rating
Wanna post a correction for this tab? Suggest correction