Oops, an error
Loading. Please wait.

Ps Shock The World tab

version 1
version 1

Whole song

1,376 views 1 this week
no commentswrite comment
1 2 3 4 5
x 4
add to favorites
×
Save as Personal and add changes to this tab that will be seen only by you. Learn more ›
×
You can save this tab as Personal to edit and correct it or add notes. All changes will be seen only by you. Learn more »
launch autoscroll
font size
0
reset
how to read this tab
guitar tuner
edit
Autoscroll
slow
fast
+/-
esc
set tempo
stop
Author
Difficulty
Intro/Verse ( Ska chords, figure out rhythm)
e--10-10--3-3--6-6--6-6---------------------------------|
B--11-11--4-4--8-8--6-6---------------------------------|
G--12-12--5-5--8-8--7-7---------------------------------|
D--12-12--5-5--8-8--8-8---------------------------------|
A-------------------------------------------------------|
E-------------------------------------------------------|

Pre-Chorus- "It's just my self-destructiveness...."
e--6-6-6-6--4-4-4-4--6-6-6-6----------------------------|
B--8-8-8-8--4-4-4-4--6-6-6-6----------------------------|
G--8-8-8-8--5-5-5-5--7-7-7-7----------------------------|
D--8-8-8-8--6-6-6-6--8-8-8-8----------------------------|
A-------------------------------------------------------|
E-------------------------------------------------------|

"And it's still a mystery...."
e--6-6-6-6-6-6-6----------------------------------------|
B--8-8-8-8-8-8-8----------------------------------------|
G--8-8-8-8-8-8-8----------------------------------------|
D--8-8-8-8-8-8-8--6-6-6-6--8-8-8-8----------------------|
A-----------------6-6-6-6--8-8-8-8----------------------|
E-----------------4-4-4-4--6-6-6-6----------------------|

Chorus
e-------------------------------------------------------|
B-------------------------------------------------------|
G--8-8-8-8-----------5-5--------------------------------|
D--8-8-8-8--5-5-5-5--5-5--3-3--6-6-6-6------------------|
A--6-6-6-6--5-5-5-5--3-3--3-3--6-6-6-6------------------|
E-----------3-3-3-3-------1-1--4-4-4-4------------------|

Breakdown (Palm Mute)
e--------------------------------------------------------|
B--------------------------------------------------------|
G-----------5-5-5-5--8-8-8-8-----------------------------|
D--5-5-5-5--5-5-5-5--8-8-8-8--8-8-8-8-------x4-----------|
A--5-5-5-5--3-3-3-3--6-6-6-6--8-8-8-8--------------------|
E--3-3-3-3--------------------6-6-6-6--------------------|


Pre Chorus 2-"It's just my self-destructiveness..."
Figure out timing.
e-------------------------------------------------------|
B-------------------------------------------------------|
G--8-8--------------------------------------------------|
D--8-8--8-8--9-9--10-10--8-8--6-6--8-8------------------|
A--6-6--8-8--9-9--10-10--8-8--6-6--8-8------------------|
E-------6-6--7-7---8--8--6-6--4-4--6-6------------------|


There is a second guitar in the song during the chorus and breakdown but it's a little 
to hear during parts of the song so I didn't bother tabbing it.

Order:
Intro/Verse:x6
Pre-Chorus:x1
Chorus:x2
Intro/Verse:x6
Pre-Chorus:x1
Chorus:x2
Breakdown:4
Pre-Chorus 2:x1
Chorus:8

            
            
Suggest correction
Creating personal tab
Creating personal tab
You can edit any tab online and save it as your Personal.

You can edit, replace or remove any tab part or add personal notes – all changes will be seen only by you.

Personal tabs can be accessed anytime from any device, even offline.
Learn more »
comments
print report bad tab
guest
You may want to rate the tab now too:
select rating
Wanna post a correction for this tab? Suggest correction