Oops, an error
Loading. Please wait.

Rest Of My Life tab

version 1
version 1

Whole song

Interactive

9,219 views 6 this week
1 commentread comment
1 2 3 4 5
1 last vote to show rating
add to favorites
×
Save as Personal and add changes to this tab that will be seen only by you. Learn more ›
×
You can save this tab as Personal to edit and correct it or add notes. All changes will be seen only by you. Learn more »
launch autoscroll
font size
0
reset
how to read this tab
guitar tuner
edit
Autoscroll
slow
fast
+/-
esc
set tempo
stop
Artist: Less than Jake
Song: The rest of my life
Album: In with the out crowd (2006)
Hear this song at: http://www.purevolume.com/lessthanjake
Tabbed by: Casey C on 2/28/06

Solo/ intro for guitar 1
E-------------------------------------------------------|
B-------------------------------------------------------|
G-------------------------------------------------------|
D----------------------------------------------1--------|
A-6-3-6-3--1--6-3-6-3-----------------------------------|
E--------------------------4-4-6-8-9-8-6-4----6-4-------|    *

D 1 can be played as E 0 if you don’t feel like hitting the D-1, or if you just suck at 
like I do. (this isn’t my primary instrument, but it was pissing me off there’s no tabs 
bass or guitar for this song)  Or just tune your guitar a half-step down.

Intro/verse/solo for guitar 2
E-------------------------|
B-------------------------|
G------8-----10-----------|
D--6---8-----10---11------|
A--6---6------8----11-----|
E--4-----------------9----|
Strum each of these chords about 12 times. There’s a somewhat offbeat rhythm, so just 
to the song to get it.

Bridge
E---------------------------------------------|
B---------------------------------------------|
G-10--11--10--11-10---8--10---10---5----------|
D-10--11--10--11-10---8--10---10---5----------|
A--8---9----8---9---8---6---8-----8----3------|
E---------------------------------------------|
Not sure about this. It could be

G-5-7-|      G-5--3--6--|
D-5-7-|      D-5--3--6--|
A-3-5-|x2  A-3--1--4----|

There, there’s all the chords. Just figure out when to play them, and the timing for 
self, its not that hard. If a 13 year old can figure that out, you can figure out the timing.

For this to come out best, copy and paste it to a word document, and make the font times 
roman, and the size 12.

            
            
Suggest correction
Creating personal tab
Creating personal tab
You can edit any tab online and save it as your Personal.

You can edit, replace or remove any tab part or add personal notes – all changes will be seen only by you.

Personal tabs can be accessed anytime from any device, even offline.
Learn more »
Give kudos to tab author, rate the tab!
1 2 3 4 5
comments
print report bad tab
1 comment total.
0 reply
Letterbomb11 10 Mar 25, 2006 06:22 PM

Intro is pretty darn off.

guest
You may want to rate the tab now too:
select rating
Wanna post a correction for this tab? Suggest correction