Oops, an error
Loading. Please wait.

Rest Of My Life tab

version 2
version 2

Whole song

Interactive

4,708 views 3 this week
2 commentsread comments
1 2 3 4 5
2 more votes to show rating
add to favorites
×
Save as Personal and add changes to this tab that will be seen only by you. Learn more ›
×
You can save this tab as Personal to edit and correct it or add notes. All changes will be seen only by you. Learn more »
launch autoscroll
font size
0
reset
how to read this tab
guitar tuner
edit
Autoscroll
slow
fast
+/-
esc
set tempo
stop
Author
Difficulty
Less Than Jake - Rest Of My Life

Album: In With The Out Crowd
Instrument: Electric Guitar
Tuning: eBGDAE

Tabbed By: Brian McLean

Not sure if this is accurate, it's my first tab and it sounds pretty good so yeah,
enjoy.

Intro
Sounds accurate but the open E string sounds a bit too low and F is too high
so I'm keeping it as E.

e||------------------------------------------||
B||------------------------------------------||
G||------------------------------------------||
D||------------------------------------------||
A||--6-3-6-3---6-3-6-3--------3-4-3-------6-3||
E||----------6----------4-4-6-------6-4-0----||

e||------------------------------------------||
B||------------------------------------------||
G||------------------------------------------||
D||------------------------------------------||
A||--6-3-6-3---6-3-6-3--------3-4-3----------||
E||----------6----------4-4-6-------6-4-0-6-4||



Verse
Pretty sure these aren't right but sound decent.
It may just be the power chords of these, but I don't think so.
Just strum the same thing for each chord.
Figure out strumming pattern yourself.


e||--4-8--8--9---||
B||--4-8--9--9---||
G||--5-9--10-10--||
D||--6-10-10-11--||
A||--6-10-8--11--||
E||--4-8--x--9---||


Chorus
Just strum the same thing for each of these.
Figure out strumming pattern yourself.
e||--------------||
B||--------------||
G||-------10-----||
D||--6-10-10-11--||
A||--6-10-8--11--||
E||--4-8-----9---||


Bridge
Figure out struming pattern for power chords yourself.
e||--------------------------||
B||--------------------------||
G||--10-11-10-11-10-8-11-----||
D||--10-11-10-11-10-8-11-11--||
A||--8--9--8--9--8--6-9--11--||
E||----------------------9---||

e||------------------------------------------||
B||------------------------------------------||
G||------------------------------------------||
D||------------------------------------------||
A||--6-3-6-3---6-3-6-3--------3-4-3----------||
E||----------6----------4-4-6-------6-4-0-6-4||

e||-----------------------||
B||-----------------------||
G||-----------------------||
D||-----------------------||
A||--------3-4-3----------||
E||--4-4-6-------6-4-0-6-4||

Outro

e||---------------------||
B||---------------------||
G||---------------------||
D||---------------------||
A||--6-3-6-3---6-3-6-3--||
E||----------6----------||

e||---------------------||
B||---------------------||
G||---------------------||
D||---------------------||
A||--6-3-6-3---6-3-6-3--||
E||----------6----------||

Here's the order and amount of times each thing is played.
Intro  x1
Verse  x4
Chorus x2
Verse  x4
Chorus x2
Bridge x1
Chorus x2
Outro  x1

It's a pretty sweet song and it's on their new album coming out in May.
Check out the song on their MySpace.
www.myspace.com/lessthanjake


            
            
Suggest correction
Creating personal tab
Creating personal tab
You can edit any tab online and save it as your Personal.

You can edit, replace or remove any tab part or add personal notes – all changes will be seen only by you.

Personal tabs can be accessed anytime from any device, even offline.
Learn more »
Give kudos to tab author, rate the tab!
1 2 3 4 5
comments
print report bad tab
2 comments total.
0 reply
blunder 507 Jun 10, 2006 11:30 AM

i think the 0 in the intro should be an Eb so they might do the song in flats, so just move all the notes up once for the rest of the song, i just think its like that cos i tried to figure it out yesterday. So intro would be:
eb||------------------------------------------||
Bb||------------------------------------------||
Gb||------------------------------------------||
Db||------------------------------------------||
Ab||--7-4-7-4---7-4-7-4--------4-7-4-------7-4||
Eb||----------7----------5-5-7-------7-5-0----||

eb||------------------------------------------||
Bb||------------------------------------------||
Gb||------------------------------------------||
Db||------------------------------------------||
Ab||--7-4-7-4---7-4-7-4--------4-7-4----------||
Eb||----------7----------5-5-7-------7-5-0-7-5||

0 reply
foster.getagrip 143 Mar 28, 2009 10:30 AM

I believe for the chords capo 1 and then G D E C repeat

guest
You may want to rate the tab now too:
select rating
Wanna post a correction for this tab? Suggest correction