Oops, an error
Loading. Please wait.

Rest Of My Life tab

version 5
version 5

Whole song

Interactive

21,676 views 27 this week
3 commentsread comments
1 2 3 4 5
x 17
add to favorites
×
Save as Personal and add changes to this tab that will be seen only by you. Learn more ›
×
You can save this tab as Personal to edit and correct it or add notes. All changes will be seen only by you. Learn more »
launch autoscroll
font size
0
reset
how to read this tab
guitar tuner
edit
Autoscroll
slow
fast
+/-
esc
set tempo
stop
Its similar to some of the others but with some modifications. This is my first tab hope ya like it



Into/Outro

e ---------------------------------------------------|
b ---------------------------------------------------|
g ---------------------------------------------------|
D ---------------------------------------------------|
A --6-3-6-3-1-----6-3-6-3----------------------------|
E -------------------------4--4--6--8-9-8-6-4-1--9-8-|

e ---------------------------------------------------|
b ---------------------------------------------------|
g ---------------------------------------------------|
D ---------------------------------------------------|
A --6-3-6-3-1-----6-3-6-3----------------------------|
E -------------------------4--4--6--8-9-8-6-4-1--6-4-|

Verse 
e -----------------------------------|
b -----------------------------------|        Play this 5 times
g ----------8-------10------6--------|        for the 1st verse
D --6-------8-------10------6--------|        and 3 times for
A --6-------6--------8------4--------|        the 2nd verse
E --4--------------------------------|

Chorus
e --------------------------------------|
b --------------------------------------|
g ------------------10------------------|
D --6-------10------10------11----------|
A --6-------10------8-------11----------|
E --4-------8---------------9-----------|


Bridge
e --------------------------|
B --------------------------|
G --10-11-10-11-10-8-11-----|
D --10-11-10-11-10-8-11-11--|
A --8--9--8--9--8--6-9--11--|
E ----------------------9---|

Solo
e ---------------------------------------------------|
b ---------------------------------------------------|
g ---------------------------------------------------|
D ---------------------------------------------------|
A --6-3-6-3-1-----6-3-6-3----------------------------|
E -------------------------4--4--6--8-9-8-6-4-1--6-4-|

e ----------------------------|
b ----------------------------|
g ----------------------------|
D ----------------------------|
A ----------------------------|
E -4--4--6--8-9-8-6-4-1--9-8--|

ORDER
Intro
Verse
Chorus
Verse
Bridge
Solo
Chorus
Outro

            
            
Suggest correction
Creating personal tab
Creating personal tab
You can edit any tab online and save it as your Personal.

You can edit, replace or remove any tab part or add personal notes – all changes will be seen only by you.

Personal tabs can be accessed anytime from any device, even offline.
Learn more »
comments
print report bad tab
3 comments total.
0 reply
armada113 30 Oct 13, 2007 03:12 PM

the solo is in the wrong order by endings and the chords should be full chords. not power chords

-1 reply
i am iron man 37 Dec 26, 2007 10:50 AM

The intros wrong
e -----|
b
-----|
g -----|
D
-----|
A --6-3-6-3-1-----6-3-6-3--
---|
E
-----4--4--6--8-9-8-6-4-1
--9-8-|

where it hits the 1 it needs to be a step lower
the rest is all
right and in tune
However
the song is played half a step down
And before people start flaming me, yes i do realise
that a whole step down from 1 would be -1 which obviously doesn't make sense

+1 reply
Boxhead_guitar 115 Jan 17, 2010 01:21 PM

Nice tab man

guest
Wanna post a correction for this tab? Suggest correction