Oops, an error
Loading. Please wait.

Settling Son bass

535 views 1 this week
1 commentread comment
1 2 3 4 5
2 more votes to show rating
add to favorites
×
Save as Personal and add changes to this tab that will be seen only by you. Learn more ›
×
You can save this tab as Personal to edit and correct it or add notes. All changes will be seen only by you. Learn more »
launch autoscroll
font size
0
reset
guitar tuner
edit
Autoscroll
slow
fast
+/-
esc
set tempo
stop
Author
Band: Less Than Jake
Album: GNV FLA
Song: Settling Son

I’m not sure with the bridge or the verse endings
So comments and corrects are very welcome

Please rate

Intro

G|----------------------------------|
D|----------------------------------| 
A|-------------------------77--4-7--|
E|-222222222222222255555555---------|

G|----------------------------------|
D|----------------------------------| 
A|-9999999999999999--------77--4-7--|
E|-----------------55555555---------|

G|----------------------------------|
D|----------------------------------| 
A|-------------------------77--4-7--|
E|-222222222222222255555555---------|

G|----------------------------------|
D|----------------------------------| 
A|---------4--54--57777777744444444-|
E|-55-555---------------------------|

Verse 0:19 (I’m not at all sure with the last two riffs)

G|----------------------------------|
D|----------------------------------| 
A|-----------------5555555555555557-|
E|-2222222222222225-----------------|

G|----------------------------------|
D|----------------------------------| 
A|-99999999999999997777777-7744-4-4-|
E|----------------------------------|

G|----------------------------------|
D|----------------------7---7---7---| 
A|-----------------55-55--55--55--5-|
E|-2222222222222225-----------------|

G|----------------------------------|
D|----------------------------------| 
A|-----77-744-544-577-777-74.-------|
E|-55-5-----------------------------|

Chorus 0:40

G|----------------------------------|
D|----------------------------7-----| 
A|-5-5554----------7-77747-79---9-7-|
E|-------75-5555555-----------------|

G|----------------------------------|
D|----------------------------------|
A|-5-5554----------4444444444447777-|
E|-------75-5555555-----------------|

G|----------------------------------|
D|----------------------------7-----| 
A|-5-5554----------7-77747-79---9-7-|
E|-------75-5555555-----------------|

G|----------------------------------|
D|----------------------------------|
A|-5-5554----------4444444477777777-|
E|-------75-5555555-----------------|

Pre-verse 1:00

G|----------------------------------|
D|----------------------------------| 
A|-------------------------77--4-7--|
E|-222222222222222255555555---------|

G|----------------------------------|
D|----------------------------------| 
A|-9999999999999999--------775422---|
E|-----------------55555555------22-|

Verse 1:10

G|----------------------------------|
D|----------------------------------| 
A|-----------------5555555555555557-|
E|-2222222222222225-----------------|

G|----------------------------------|
D|----------------------------------| 
A|-99999999999999997777777-7744-4-4-|
E|----------------------------------|

G|----------------------------------|
D|----------------------7---7---7---| 
A|-----------------55-55--55--55--5-|
E|-2222222222222225-----------------|

G|---------66-766-7-----------------|
D|-77-799-9-------------------------| 
A|-----------------77-777-77\-------|
E|----------------------------------|

Chorus 1:31

G|----------------------------------|
D|----------------------------7-----| 
A|-5-5554----------7-77747-79---9-7-|
E|-------75-5555555-----------------|

G|----------------------------------|
D|----------------------------------|
A|-5-5554----------4444444444447777-|
E|-------75-5555555-----------------|

G|----------------------------------|
D|----------------------------7-----| 
A|-5-5554----------7-77747-79---9-7-|
E|-------75-5555555-----------------|

G|----------------------------------|
D|----------------------------------|
A|-5-5554----------4444444477777777-|
E|-------75-5555555-----------------|

Bridge 1:51 (not sure with this)

G|------------------------------------------------------------------|
D|------------------------------------------------------------------| 
A|---------------------------7---7-99------------------------7---7--|
E|-22--------------55------------------------------55---------------|

G|---------------------------------|
D|---------------------------------| 
A|-------------------------77—4-7--| x2
E|-22---25524-202--55--------------|

G|---------666766679999999966666666-|
D|-77779999-------------------------| 
A|----------------------------------|
E|----------------------------------|

Chorus 2:18

G|---------------------------------|
D|---------------------------7-----| 
A|-5-5554---------7-77747-79---9-7-|
E|-------75-555555-----------------|

G|---------------------------------|
D|---------------------------------|
A|-5-5554---------4444444444447777-|
E|-------75-555555-----------------|

G|---------------------------------|
D|---------------------------7-----| 
A|-5-5554---------7-77747-79---9-7-|
E|-------75-555555-----------------|

G|---------------------------------|
D|---------------------------------|
A|-5-5554---------4444444477777777-|
E|-------75-555555-----------------|

G|---------------------------------|
D|---------------------------7-----| 
A|-5-5554---------7-77747-79---9-7-|
E|-------75-555555-----------------|

G|---------------------------------|
D|---------------------------------|
A|-5-5554---------4444444444447777-|
E|-------75-555555-----------------|

G|---------------------------------|
D|---------------------------7-----| 
A|-5-5554---------7-77747-79---9-7-|
E|-------75-555555-----------------|

G|-----------------------------------|
D|-----------------------------------|
A|-5-5554---------4444444477777777---|
E|-------75-555555----------------22-|


            
            
Suggest correction
Creating personal tab
Creating personal tab
You can edit any tab online and save it as your Personal.

You can edit, replace or remove any tab part or add personal notes – all changes will be seen only by you.

Personal tabs can be accessed anytime from any device, even offline.
Learn more »
Give kudos to tab author, rate the tab!
1 2 3 4 5
comments
print report bad tab
1 comment total.
0 reply
xTylerZx 10 Sep 23, 2008 07:18 PM

Dude this is ****'n sick nice job!

guest
You may want to rate the tab now too:
select rating
Wanna post a correction for this tab? Suggest correction