Oops, an error
Loading. Please wait.

Pin Striped Suit tab

245 views 1 this week
no commentswrite comment
1 2 3 4 5
2 more votes to show rating
add to favorites
×
Save as Personal and add changes to this tab that will be seen only by you. Learn more ›
×
You can save this tab as Personal to edit and correct it or add notes. All changes will be seen only by you. Learn more »
launch autoscroll
font size
0
reset
how to read this tab
guitar tuner
edit
Autoscroll
slow
fast
+/-
esc
set tempo
stop
#----------------------------------PLEASE NOTE---------------------------------#
#This file is the author's own work and represents their interpretation of the #
#song. You may only use this file for private study, scholarship, or research. #
#------------------------------------------------------------------------------##
From: Pancreas@vt.edu
Subject: TAB: Pinstriped suit - Let's Go Bowling - pinstrip.tab [1/1]
Date: Thu, 19 Oct 95 02:05:21 PST

"Pin Striped Suit"
By "Let's Go Bowling" off of "Music to Bowl By"

Thanks to my sister Jeanne for help with the chords!

            Fm        Bb       Ab       Eb
e-----------4---------1--------4--------3--------------|
B-----------6---------3--------4--------4--------------|
G-----------5---------3--------5--------3--------------|
D-----------3---------3--------6--------5--------------|
A-----------X---------1--------6--------6--------------|
E-----------X---------1--------4--------3--------------|

xby =  play at x bent to y
xpy = pull from x to y
xhy = hammer onto y from x

======================================================================
Lyrics
Guitar
e--------4---6b8---6---4-------------4--6~~~--4-----4~~---------|
B-----6--------------------6~~~---6--------------6---------6~~~-|
G--5------------------------------------------------------------|
D---------------------------------------------------------------|
A---------------------------------------------------------------|
E---------------------------------------------------------------|
Bass
======================================================================
Lyrics
Guitar
e-------4--6b8---6---4-------------4-4--4-4--4-4-4-4---------------|
B----6--------------------6~~~~~---6-6--6-6--6-6----------5--6~~~~-|
G--5---------------------------------------------------5-----------|
D------------------------------------------------------------------|
A------------------------------------------------------------------|
E------------------------------------------------------------------|
Bass
G------------------------------------------------------------------|
D------------------------------------------------------------------|
A------------------------------------------------------------1~~~~-|
E------------------------------------------------------------------|
======================================================================
Lyrics
Guitar
B---4---6:Fm                         Bb          Ab    Eb
Bass
G-----------------------------------------------------------|
D------------------------------------------3----------------|
A---------------3--------------3-----1--4-----4-----3-----1-|
E---4---1---4------4----1---4-----4--------------4-----3----|
======================================================================
Lyrics
Guitar
     Fm                                       Eb             Fm
Bass
G-----------------------------------------------------------------|
D---------------------------------------------------1--1----------|
A------------3--------------3-----------3--------3-------3--1-----|
E----1---4------4----1---4-----4--1--4-----4--4---------------1---|
=====================================================================
Lyrics                  Here he comes   down the street
Guitar
     Fm       Bb        Fm
Bass
G-----------------------------------------------------------------|
D-----------------------------------------------------------------|
A-------3-----1--1--------------3--------------3------------------|
E----4-----4------------1---4-------4---1---4------4--------------|
=====================================================================
Lyrics  With his wingtips  on his feet
Guitar
        Bb                 Ab     Eb
Bass
G-----------------------------------------|
D-------------3--3p1----------------------|
A-------1--4----------3----4--3--4--3-----|
E-----------------------------------------|
=====================================================================
Lyrics  Tommy Gun    at his side
Guitar
       Fm
Bass
G-----------------------------------------|
D-----------------------------------------|
A-------------3-------------3-------------|
E------1---4-----4---1---4------4---------|
=====================================================================
Lyrics  Just one thing is on his mind
Guitar
        Bb                 Ab     Eb
Bass
G-----------------------------------------|
D-------------3--3p1----------------------|
A-------1--4----------3----4--3--1--3-----|
E-----------------------------------------|
=====================================================================
        The song continues in this pattern until they get to their
        own little solo parts.  Here are the guitar and bass "solos"

Guitar
e--------6--8--6-----------------|
B--6--9-----9-----9--6--9--6p4---|
G--------------------------------|
D--------------------------------|
A--------------------------------|
E--------------------------------|

Bass
G--------------------8--9--10---|
D-----------8----10-------------|
A--8-11-8-8---11----------------|
E-------------------------------|

       After the keyboard solo, the trombone kicks in and they play

=====================================================================
Guitar
        Fm                                 Eb
Bass
G---------------------------------------------------------------|
D-------3-3-3---3--3--2-2-2---2-2-1-1-1----1--0-----------------|
A-------------3-------------3-----------3--------3--1--3--------|
E---------------------------------------------------------------|
=====================================================================
Guitar
        Fm                                 Eb
Bass
G---------------------------------------------------------------|
D-------3-3-3---3--3--2-2-2---2-2-1-1-1----1--2-2-2----2--------|
A-------------3-------------3-----------3-----------3-----------|
E---------------------------------------------------------------|
=====================================================================

    The rest of the song follows the two above patterns. Although the
    bass never seems to play exactly the same thing each time, it is
    always similar to what is above.

Once Again, there is my interpretation!

If you have any corrections or anything, e-mail me at:
pancreas@vt.edu

            
            
Suggest correction
Creating personal tab
Creating personal tab
You can edit any tab online and save it as your Personal.

You can edit, replace or remove any tab part or add personal notes – all changes will be seen only by you.

Personal tabs can be accessed anytime from any device, even offline.
Learn more »
Give kudos to tab author, rate the tab!
1 2 3 4 5
comments
print report bad tab
guest
Wanna post a correction for this tab? Suggest correction