Oops, an error
Loading. Please wait.

La Scatola Blu Acoustic tab

by Levante
385 views 18 this week
no commentswrite comment
1 2 3 4 5
2 more votes to show rating
add to favorites
×
Save as Personal and add changes to this tab that will be seen only by you. Learn more ›
×
You can save this tab as Personal to edit and correct it or add notes. All changes will be seen only by you. Learn more »
launch autoscroll
font size
0
reset
how to read this tab
guitar tuner
edit
Autoscroll
slow
fast
+/-
esc
set tempo
stop
Milano Acoustics - https://www.youtube.com/watch?v=XjXsshhQTuM

[Intro]
  Am7             Cma7           G                              Am7            Cma7
E|-----------------------------|-------------3----------------|-----------------------------|
B|------0h-1-----------0-------|-----3------------3-----------|------0h-1-----------0-------|
G|------------0------------0---|---------0------------0-------|------------0------------0---|
D|-2---------------------------|--------------------------0---|-2---------------------------|
A|----------------3------------|-2----------------------------|----------------3------------|
E|-----------------------------|------------------------------|-----------------------------|

   G                              Am7            Cma7           G
E|-------------3----------------|-----------------------------|-------------3----------------|
B|-----3------------3-----------|------0h-1-----------0-------|-----3------------3-----------|
G|---------0------------0-------|------------0------------0---|---------0------------0-------|
D|--------------------------0---|-2---------------------------|--------------------------0---|
A|-2----------------------------|----------------3------------|-2----------------------------|
E|------------------------------|-----------------------------|------------------------------|

  Am7             Cma7           G                           
E|-----------------------------|-------------3------------3---|-------------3----------------|
B|------0h-1-----------0-------|-----3------------3-----------|-----3------------3-----------|
G|------------0------------0---|---------0------------0-------|---------0------------0-------|
D|-2---------------------------|------------------------------|--------------------------0---|
A|----------------3------------|-2----------------------------|------------------------------|
E|-----------------------------|------------------------------|------------------------------|

[Verse 1]
E|---------------------------|-------------3----------------|---------------------------|
B|------1------------0-------|-----3------------3-----------|------1------------0-------|
G|----------0----------------|---------0------------0-------|----------0----------------|
D|-2-------------------------|--------------------------0---|-2-------------------------|
A|--------------3--------3---|-2----------------------------|--------------3--------3---|
E|---------------------------|------------------------------|---------------------------|

        Solo te,               solo tre                             Solo -  te 

E|-------------3----------------|---------------------------|-------------3----------------|
B|-----3------------3-----------|------1------------0-------|-----3------------3-----------|
G|---------0------------0-------|----------0----------------|---------0------------0-------|
D|--------------------------0---|-2-------------------------|--------------------------0---|
A|-2----------------------------|--------------3--------3---|-2----------------------------|
E|------------------------------|---------------------------|------------------------------|

   e tre accordi per te.            Se scendo giù,                     dove sei tu

E|---------------------------|-------------3----------------|---------------------------|
B|------1------------0-------|-----3------------3-----------|------1------------0-------|
G|----------0----------------|---------0------------0-------|----------0----------------|
D|-2-------------------------|--------------------------0---|-2-------------------------|
A|--------------3--------3---|-2----------------------------|--------------3--------3---|
E|---------------------------|------------------------------|---------------------------|

     Giù in cantina                In una scatola -                      - blu.

E|-------------3----------------|---------------------------|-------------3------------3---|
B|-----3------------3-----------|------1------------0-------|-----3------------3-----------|
G|---------0------------0-------|----------0----------------|---------0------------0-------|
D|--------------------------0---|-2-------------------------|------------------------------|
A|-2----------------------------|--------------3--------3---|-2----------------------------|
E|------------------------------|---------------------------|------------------------------|
         In una scato-           -la
      
E|---------3--------------------|
B|-3------------3---------------|
G|-----0------------0-----------|
D|----------------------0-------|
A|------------------------------|
E|------------------------------|

[Verse 2]
E|---------------------------|-------------3----------------|---------------------------|
B|------1------------0-------|-----3------------3-----------|------1------------0-------|
G|----------0----------------|---------0------------0-------|----------0----------------|
D|-2-------------------------|--------------------------0---|-2-------------------------|
A|--------------3--------3---|-2----------------------------|--------------3--------3---|
E|---------------------------|------------------------------|---------------------------|

        Solo te,                        solo me                     Quanto costa -         

E|-------------3----------------|---------------------------|-------------3----------------|
B|-----3------------3-----------|------1------------0-------|-----3------------3-----------|
G|---------0------------0-------|----------0----------------|---------0------------0-------|
D|--------------------------0---|-2-------------------------|--------------------------0---|
A|-2----------------------------|--------------3--------3---|-2----------------------------|
E|------------------------------|---------------------------|------------------------------|

              ce  -de          -re     Ad un sorso                       di rimpian-      ti          

E|---------------------------|-------------3----------------|---------------------------|
B|------1------------0-------|-----3------------3-----------|------1------------0-------|
G|----------0----------------|---------0------------0-------|----------0----------------|
D|-2-------------------------|--------------------------0---|-2-------------------------|
A|--------------3--------3---|-2----------------------------|--------------3--------3---|
E|---------------------------|------------------------------|---------------------------|

        Per senti-              -rsi sempre più-       -stanchi    ormai

E|-------------3----------------|---------------------------|-------------3------------3---|
B|-----3------------3-----------|------1------------0-------|-----3------------3-----------|
G|---------0------------0-------|----------0----------------|---------0------------0-------|
D|--------------------------0---|-2-------------------------|------------------------------|
A|-2----------------------------|--------------3--------3---|-2----------------------------|
E|------------------------------|---------------------------|------------------------------|
        
        E un po' meno pron-           -ti.

E|---------3--------------------|
B|-3------------3---------------|
G|-----0------------0-----------|
D|------------------------------|
A|------------------------------|
E|------------------------------|

[Verse 3]
E|---------------------------|-------------3----------------|---------------------------|
B|------1------------0-------|-----3------------3-----------|------1------------0-------|
G|----------0----------------|---------0------------0-------|----------0----------------|
D|-2-------------------------|--------------------------0---|-2-------------------------|
A|--------------3--------3---|-2----------------------------|--------------3--------3---|
E|---------------------------|------------------------------|---------------------------|

       Contro me-                 -cento-              -te       Pianger sembra - 

E|-------------3----------------|---------------------------|-------------3----------------|
B|-----3------------3-----------|------1------------0-------|-----3------------3-----------|
G|---------0------------0-------|----------0----------------|---------0------------0-------|
D|--------------------------0---|-2-------------------------|--------------------------0---|
A|-2----------------------------|--------------3--------3---|-2----------------------------|
E|------------------------------|---------------------------|------------------------------|

     fa-            -cile              Vendo vento-             -alla-           -gente     

E|---------------------------|-------------3----------------|---------------------------|
B|------1------------0-------|-----3------------3-----------|------1------------0-------|
G|----------0----------------|---------0------------0-------|----------0----------------|
D|-2-------------------------|--------------------------0---|-2-------------------------|
A|--------------3--------3---|-2----------------------------|--------------3--------3---|
E|---------------------------|------------------------------|---------------------------|

       Oltre         te           tutto è-     - niente                     -lo sai

E|-------------3----------------|---------------------------|-------------3----------------||
B|-----3------------3-----------|------1------------0-------|-----3------------------------||
G|---------0------------0-------|----------0----------------|---------0--------------------||
D|--------------------------0---|-2-------------------------|------------------------------||
A|-2----------------------------|--------------3--------3---|-2----------------------------||
E|------------------------------|---------------------------|------------------------------||
        
       Tutto è niente-                         -se-            - vuoi.

E|---|
B|---|
G|---|
D|---|
A|---|
E|---|


***********************************

| h Hammer-on 

***********************************             

            
            
Suggest correction
Creating personal tab
Creating personal tab
You can edit any tab online and save it as your Personal.

You can edit, replace or remove any tab part or add personal notes – all changes will be seen only by you.

Personal tabs can be accessed anytime from any device, even offline.
Learn more »
Give kudos to tab author, rate the tab!
1 2 3 4 5
comments
print report bad tab
guest
You may want to rate the tab now too:
select rating
Wanna post a correction for this tab? Suggest correction