Oops, an error
Loading. Please wait.

Power Of The Horde bass

version 1
version 1

Whole song

Interactive

1,476 views 1 this week
no commentswrite comment
1 2 3 4 5
3 more votes to show rating
add to favorites
×
Save as Personal and add changes to this tab that will be seen only by you. Learn more ›
×
You can save this tab as Personal to edit and correct it or add notes. All changes will be seen only by you. Learn more »
launch autoscroll
font size
0
reset
guitar tuner
edit
Autoscroll
slow
fast
+/-
esc
set tempo
stop
Author
Difficulty
intermediate
-------------------------------------------------------------------------------
                             Power Of the Horde - Elite Tauren Chieftain
-------------------------------------------------------------------------------

Tabbed By : Shadow Runner
e-mail: Filon1cus@hotmail.com (e-mail me or comment if u have any opinion or 
about this tab plz.)

Intro: 4secs-17secs

G|---------------------------------|
D|-----32-----5-3-2----32-----5-3-2|
A|3------3---------3-----3---------|
E|---------------------------------|

Then: 18secs-30secs
G|--------------------------------------------------|
D|-----------32-------5-3-2-----------32-------5-3-2|
A|3-3-3-3-3-3--3-3-3-3-----3-3-3-3-3-3--3-3-3-3-----|
E|--------------------------------------------------|

Then: 31secs-43secs

G|---------------------------------|
D|---------------------------------|  x2
A|---------------32-----------5-3-2|
E|0-0-0-0-0-0-0-0--0-0-0-0-0-0-----|

Then: 44secs-57secs

G|-------------------------|
D|-------------------------|  x2
A|-----------32-------5-3-2|
E|3-3-3-3-3-3--3-3-3-3-----|

Then: 58secs-1:10secs

G|---------------------------------|
D|---------------------------------|  x2
A|---------------32-----------5-3-2|
E|0-0-0-0-0-0-0-0--0-0-0-0-0-0-----|

Then: 1:11secs-1:23secs

G|--------------------------------------------------------|
D|--------------------------------------------------------|
A|--------------------------------------------------------|
E|76-65-54-43-32-76-65-54-43-32-76-65-54-43-32-76-65-3-3-0|

Then: 1:24secs-1:37secs

G|--------------------------------------------------|
D|-----------32-------5-3-2-----------32-------5-3-2|
A|3-3-3-3-3-3--3-3-3-3-----3-3-3-3-3-3--3-3-3-3-----|
E|--------------------------------------------------|

Then: 1:38secs-1:50secs

G|-------------------------|
D|-------------------------|  x2
A|-----------32-------5-3-2|
E|3-3-3-3-3-3--3-3-3-3-----|

Then: 1:51secs-2:03secs

G|---------------------------------|
D|---------------------------------|  x2
A|---------------32-----------5-3-2|
E|0-0-0-0-0-0-0-0--0-0-0-0-0-0-----|

Then: 2:04secs-2:17secs

G|--------------------------------------------------------|
D|--------------------------------------------------------|
A|--------------------------------------------------------|
E|76-65-54-43-32-76-65-54-43-32-76-65-54-43-32-76-65-3-3-0|

Then: 2:18secs-2:20secs

G|----------------|
D|----------------|
A|----------------|
E|5555666677778888|

Solo: 2:21secs-2:46secs

G|---------------------------------------|
D|---------------------------------------|
A|---------------------------------------|
E|5--6-5-3--4--5-4-2--5--6-5-3--7-222-111|

Then: 2:47secs-2:59secs

G|-----------------------------------------|
D|-----------------------------------------|
A|-----------------------------------------|
E|555556666633333444441111122222-7-76543-32|

Then: 3:00secs-3:12secs

G|----------------------------------------------------|
D|----------------------------------------------------|
A|----------------------------------------------------|
E|3333333342--5555555532-5-5-6-5-4-5-4-3-7-765-654-543|

End of Solo: 3:13secs-3:22secs

G|---------------------------------|
D|---------------------------------|
A|---------------------------------|
E|7--7-6-5-4-5-4-3-2--2-1-1111-0000|

Then: 3:23secs-3:36secs

G|-------------------------|
D|-------------------------|  x2
A|-----------32-------5-3-2|
E|3-3-3-3-3-3--3-3-3-3-----|

Then: 3:37secs-3:49secs

G|---------------------------------|
D|---------------------------------|  x2
A|---------------32-----------5-3-2|
E|0-0-0-0-0-0-0-0--0-0-0-0-0-0-----|

Then: 3:50secs-4:02secs

G|--------------------------------------------------------|
D|--------------------------------------------------------|
A|--------------------------------------------------------|
E|76-65-54-43-32-76-65-54-43-32-76-65-54-43-32-76-65-3-3-0|

Then: 4:03secs-4:20secs

G|-----------------------------------------------------|
D|-----------------------------------------------------|
A|-----------------------------------------------------|
E|5-4-3-2-1-5-4-3-2-1-5-4-3-2-1-5-4-3-2--3-2---3--2---3|

The End. Hope you enjoy this tab. It's my first tab, so probably it has some mistakes, 
likely in rithm. But u ppl can figure it out easily.

Music is awesome btw. \m/


| /  slide up
| \  slide down
| h  hammer-on
| p  pull-off
| ~  vibrato
| +  harmonic
| x  Mute note
===============================================================================

            
            
Suggest correction
Creating personal tab
Creating personal tab
You can edit any tab online and save it as your Personal.

You can edit, replace or remove any tab part or add personal notes – all changes will be seen only by you.

Personal tabs can be accessed anytime from any device, even offline.
Learn more »
Give kudos to tab author, rate the tab!
1 2 3 4 5
comments
print report bad tab
guest
You may want to rate the tab now too:
select rating
Wanna post a correction for this tab? Suggest correction