Oops, an error
Loading. Please wait.

Rogues Do It From Behind tab

version 1
version 1

Whole song

Interactive

15,815 views 12 this week
3 commentsread comments
1 2 3 4 5
x 6
add to favorites
×
Save as Personal and add changes to this tab that will be seen only by you. Learn more ›
×
You can save this tab as Personal to edit and correct it or add notes. All changes will be seen only by you. Learn more »
launch autoscroll
font size
0
reset
how to read this tab
guitar tuner
edit
Autoscroll
slow
fast
+/-
esc
set tempo
stop
Author
L70ETC
Udder Chaos
Rogues Do It From Behind
Tabbed by: Justin Nash
Email: tuscanincs@yahoo.com

 /    slide up
 \    slide down
 ^    bend
 h    hammer-on
 p    pull-off
 x    Mute note
 ph Pinch Harmonic
 .    P.M.
==================================================================================

Tuning: E,A,D,G,B,e

  Intro Riff  x2

e|-------------------------------------------------|
B|-------------------------------------------------|
G|-----------------------------------------------3-|
D|-------------------------------------------------|
A|-7-7--6-----3--5--3--2-3-2--7-7--6-----3--5--2---|
E|-5-5-----5------------------5-5-----5------------|
        ph             . . .       ph            ph

e|-------------------------------------------------|
B|-------------------------------------------------|
G|-------------------------------------------------|
D|-------------------------------------------------|
A|-7-7--6-----3--5--3--2-3-2--7-7--6-----3--5--2---|
E|-5-5-----5------------------5-5-----5------------|
        ph             . . .      ph

  Verse Riff  x2
e|-------------------------------------------------|
B|-------------------------------------------------|
G|-------------------------------------------------|
D|------8----7----5----4-5-4-------6-----5--7--4---|
A|-7-7--6----5----3----2-3-2--7-7--4-----3--5--2---|
E|-5-5------------------------5-5-----5------------|
                       . . .
  Chorus Riff x1
e|----------------------------------------------------------|
B|----------------------------------------------------------|
G|----------------------------------------------------------|
D|----------------------------------------------------------|
A|-8-8-8--8-\6--8--9--8--8-/9-\8----8-8-8--8-\6--8--9--6----|
E|-6-6-6--6-\4--6--7--6--6-/7-\6----6-6-6--6-\4--6--7--4----|

e|----------------------------------------------------------|
B|----------------------------------------------------------|
G|----------------------------------------------------------|
D|----------------------------------------------------------|
A|-8-8-8--8-\6--8--9--8--8-/9-\8----8-8-8-------------------|
E|-6-6-6--6-\4--6--7--6--6-/7-\6----6-6-6-------------------|

Repeat Intro Riff x1

Repeat Verse Riff x2

Repeat Chorus Riff x1


  Interlude Intro Riff x1

e|-------------------------------------------------|
B|-------------------------------------------------|
G|-----------------------------------------------3-|
D|-------------------------------------------------|
A|-7--------------------4-----7--------------------|
E|-5--------------------------5--------------------|
                        ph                       ph

e|----------------------------------------------------|
B|----------------------------------------------------|
G|----------------------------------------------------|
D|----------------------------------------------------|
A|-7--------------------4-----777777777777777777777777|
E|-5--------------------------555555555555555555555555|
                        ph    ........................

  Interlude Riff x8
e|-------------------------------------------------|
B|-------------------------------------------------|
G|-------------------------------------------------|
D|-------------------------------------------------|
A|----------------5h7h8------------5h7h8-----------|
E|-555-5h7h8--555--------555-5h7h8-------3---------|
   ...        ...        ...

 Interlude Riff2 x2
e|-------------------------------------------------|
B|-------------------------------------------------|
G|-------------------------------------------------|
D|--------5--------------8----------5--------------|
A|-5--555-3--5--7--777-7-6---5--555-3--5--7--777-7-|
E|-3--333----3--5--555-5-----3--333----3--5--555-5-|
      ...          ...          ...          ...

  Solo
e|---------------------------------------------------------------------------|
B|--------------------------------------------------------8h10p8-10h11p10-10-|
G|-/10-9--7-9-7-6-7-6------------------6h7p6-7h9p7-9h10p9--------------------|
D|--------------------7--5797----7h8p7---------------------------------------|
A|---------------------------------------------------------------------------|
E|---------------------------------------------------------------------------|


e|-------------------10^-10----17^---17---17-18-20-18h20p18-17-------------|
B|-10-11-13-11-10-13-------------------------------------------20-18-17----|
G|-------------------------------------------------------------------------|
D|-------------------------------------------------------------------------|
A|-------------------------------------------------------------------------|
E|-------------------------------------------------------------------------|

e|-------------------------------------------------------------------------|
B|-------------------------------------------------------------------------|
G|-12-14-15-12-14-15-12-14-15-12-14-15-17-15-14-12-14-15-17-15-14-12-14-15-|
D|-------------------------------------------------------------------------|
A|-------------------------------------------------------------------------|
E|-------------------------------------------------------------------------|

e|-16-14-12----12-14-15^------17^---------------------|
B|----------16----------------------------------------|
G|----------------------------------------------------|
D|----------------------------------------------------|
A|----------------------------------------------------|
E|----------------------------------------------------|


Repeat Intro Riff x1

Repeat Verse Riff x2

Repeat Chorus Riff x1

Yes I know the ending of the solo isn't right. But if you have any revisions to make to
make them and let me know at tuscanincs@yahoo.com cause i really wanna get this song
right lol. This is my first tab so be nice, I just thought the other tab on here was so 
it needed revising.

LOK'TAR! BLOOD AND THUNDER! FOR THE HORDE! DEATH TO THE ALLIANCE!

            
            
Suggest correction
Creating personal tab
Creating personal tab
You can edit any tab online and save it as your Personal.

You can edit, replace or remove any tab part or add personal notes – all changes will be seen only by you.

Personal tabs can be accessed anytime from any device, even offline.
Learn more »
comments
print report bad tab
3 comments total.
0 reply
bac738 10 Aug 13, 2009 05:34 PM

YOUR SUPER SPECIAL AWESOME! I LOVE YOU!

0 reply
GuitaristJb 10 Sep 01, 2009 09:12 PM

Hey man, I think this part is like this

Interlude Riff2 x2
e|-------------------------------------------------|
B|-------------------------------------------------|
G|-------------------------------------------------|
D|--------5--------------8----------5--------------|
A|-5--555-3--5--7--777-7-6---5--555-3--5--7--777-7-|
E|-3--333----3--5--555-5-----3--333----3--5--555-5-|

Interlude Riff2 x2
e|-------------------------------------------------|
B|-------------------------------------------------|
G|-------------------------------------------------|
D|--------5--------------8----------5--------------|
A|-4--444-3--5--7--777-7-6---5--555-3--5--7--777-7-|
E|-2--222----3--5--555-5-----3--333----3--5--555-5-|

0 reply
GuitaristJb 10 Sep 01, 2009 09:21 PM

Chorus Riff x1
And I play this..
e|----------------------------------------------------------|
B|----------------------------------------------------------|
G|----------------------------------------------------------|
D|----------------------------------------------------------|
A|-8-8-8--8-\6--8--9--8--8-/9-\8----8-8-8--8-\6--8--9--6----|
E|-6-6-6--6-\4--6--7--6--6-/7-\6----6-6-6--6-\4--6--7--4----|

e|----------------------------------------------------------|
B|----------------------------------------------------------|
G|----------------------------------------------------------|
D|----------------------------------------------------------|
A|-8-8-8--8-\6--8--9--8--8-/9-\8----8-8-8-------------------|
E|-6-6-6--6-\4--6--7--6--6-/7-\6----6-6-6-------------------|

This way...

Chorus Riff x1
e|--------------------------------------------|
B|--------------------------------------------|
G|--------------------------------------------|
D|--------------------------------------------|
A|-8-8-8--5--8--5--8---------8-8-8--5-8-8--7--|
E|-6-6-6--3--6--3--6--5-6-5--6-6-6--3-6-6--5--|

guest
You may want to rate the tab now too:
select rating
Wanna post a correction for this tab? Suggest correction