Oops, an error
Loading. Please wait.

This Time bass

version 1
version 1

Whole song

Interactive

1,149 views 3 this week
no commentswrite comment
1 2 3 4 5
3 more votes to show rating
add to favorites
×
Save as Personal and add changes to this tab that will be seen only by you. Learn more ›
×
You can save this tab as Personal to edit and correct it or add notes. All changes will be seen only by you. Learn more »
launch autoscroll
font size
0
reset
guitar tuner
edit
Autoscroll
slow
fast
+/-
esc
set tempo
stop
Life of Agony - The River Runs Red - This Time
Alright I saw there was no bass tab for this song, so i'll try and do my best to post a good one.
Tuning D standard DGCFAD low tO HIGH
This tab will take you through most of the song. I'm gonna gonna tab it start to finish, 
it's pretty easy to tell which riffs are repeated and stuff.

Intro (Guitar starts first then bass comes in)
                                                                    (x1)
f-----------------------------------------------------------------------|
c-----------------------------------------------------------------------|
g-7//--7-7-7-7-7-7-7-7-7------------------------------------------------|
d--------------------------10-10-10-10-10-10-10-10--5-5-5-5-5-5-5-5-5-5-|


Repeat about 3 times/ The last 2 times let ring out.                                     
                          (x3)
f------------------------------------------------------------------------|
c------------------------------------------------------------------------|
g-7-7-7-7-7-7-7----------------------------------------------------------|
d-----------------10-10-10-10-10-10-10-10--8-8-8-8-8-8-8-8-5-5-5-5-5-5-5-|


                           ( x2 or x3)
f-------------------------------------|
c-------------------------------------|
g-------------------------------------|
d-3--xx-2---3-2-1-0--0-0-0-0-0-0-0-xx-|


Drums stop Bass stops.
Then it comes in here.
f-----------------------------------------------|
c-----------------------------------------------|
g-12////////////---------------0-3-0------------|
d-------------------5-----------------3---0-1-2-|

Singing starts.                          (x2)
f----------------------------------------------|
c----------------------------------------------|
g-3-6-8-8b--8-6----3-6-8-b---------------------|
d-----------------------------3-6-3-1----0-1-2-|

                         You got time but you ain't got time for me.
f---------------------------------------------------|
c---------------------------------------------------|
g----------------------------------------------2----|
d-3-xx-2---3-2-1--0-1-2-----3-xx-2---3-2-1---3----0-|

All is repeated.

Here's the riff toward then end, before the solo.

This time........this time....this ti-----------------me.

f---------------------------------------------------------|
c---------------------------------------------------------|
g---------------------------------------7--7--7--7--7--7--|
d-0-0-0-0-0-0-0-0-0-0-0-0-0-0-0-0-0-0---------------------|

Outro
f-----------------|
c-----------------|
g-----------------|
d-3-xx-2-3-2-1///-|

And that's it guys! Should be mostly correct. It'll sound right as long as you tune it correctly.
-Dylancapps94@yahoo.com Justpissed247@ug.com Whiplash2343@aol.com

            
            
Suggest correction
Creating personal tab
Creating personal tab
You can edit any tab online and save it as your Personal.

You can edit, replace or remove any tab part or add personal notes – all changes will be seen only by you.

Personal tabs can be accessed anytime from any device, even offline.
Learn more »
Give kudos to tab author, rate the tab!
1 2 3 4 5
comments
print report bad tab
guest
You may want to rate the tab now too:
select rating
Wanna post a correction for this tab? Suggest correction