Oops, an error
Loading. Please wait.

Broken tab

version 4
version 4

Whole song

Interactive

12,919 views 1 this week
1 commentread comment
1 2 3 4 5
x 3
add to favorites
×
Save as Personal and add changes to this tab that will be seen only by you. Learn more ›
×
You can save this tab as Personal to edit and correct it or add notes. All changes will be seen only by you. Learn more »
launch autoscroll
font size
0
reset
how to read this tab
guitar tuner
edit
Autoscroll
slow
fast
+/-
esc
set tempo
stop
Author
Not the exact way its played but still sounds pretty good when played with the song. i 
tweaking it a bit and playing with it a bit till u find what works best for you. this is 
first tab so im sry if its a little off anywhere. rate and enjoy

Artist: Lifehouse
Song: Broken
Tuning: Standard


Intro:
e|----------------------------------------------|
B|----------------------------------------------|
G|----------------------------------------------|
D|---4-----4-----4-----4-----8-----8-----8-----8|
A|----------------------------------------------|
E|2-----2-----2-----2-----6-----6-----6-----6---|(x2)

Verses:
e|----------------------------------------------|
B|----------------------------------------------|
G|----------------------------------------------|
D|---4-----4-----4-----4-----8-----8-----8-----8|
A|----------------------------------------------|
E|2-----2-----2-----2-----6-----6-----6-----6---|
1.The broken clock is a comfort
2.The broken locks were a warning

e|----------------------------------------------|
B|----------------------------------------------|
G|----------------------------------------------|
D|---4-----4-----4-----4-----8-----8-----8-----8|
A|----------------------------------------------|
E|2-----2-----2-----2-----6-----6-----6-----6---|
  it helps me sleep tonight
  you got inside my head

e|----------------------------------------------|
B|----------------------------------------------|
G|----------------------------------------------|
D|---4-----4-----4-----4-----8-----8-----8-----8|
A|----------------------------------------------|
E|2-----2-----2-----2-----6-----6-----6-----6---|
  maybe it can stop tomorrow
  I tried my best to be guarded

e|----------------------------------------------|
B|----------------------------------------------|
G|---6-----6-----6-----6------------------------|
D|---------------------------6------6-----6----6|
A|4-----4-----4-----4---------------------------|
E|------------------------4-----4-----4-----4---|
  from stealing all my time
  I'm an open book instead

e|----------------------------------------------|
B|----------------------------------------------|
G|----------------------------------------------|
D|---4-----4-----4-----4-----8-----8-----8-----8|
A|----------------------------------------------|
E|2-----2-----2-----2-----6-----6-----6-----6---|
  and I am here still waiting
  And I still see your reflection

e|----------------------------------------------|
B|----------------------------------------------|
G|----------------------------------------------|
D|---4-----4-----4-----4-----8-----8-----8-----8|
A|----------------------------------------------|
E|2-----2-----2-----2-----6-----6-----6-----6---|
  though i still have my doubts
  inside of my eyes

e|----------------------------------------------|
B|----------------------------------------------|
G|----------------------------------------------|
D|---4-----4-----4-----4-----8-----8-----8-----8|
A|----------------------------------------------|
E|2-----2-----2-----2-----6-----6-----6-----6---|
  i am damaged at best
  That are looking for purpose

e|----------------------------------------------|
B|----------------------------------------------|
G|---6-----6-----6-----6------------------------|
D|---------------------------6------6-----6----6|
A|4-----4-----4-----4---------------------------|
E|------------------------4-----4-----4-----4---|
  like you've already figured out (go to Chorus)
  they're still looking for life (go to Chorus)

Chorus:
e|-----------------------------------------------------|
B|-----------------------------------------------------|
G|-------------6-----------------------6---------------|
D|-------------6-----------------------6-----------6---|
A|-------------4-----------------------4-----------6---|
E|-------------------------------------------------4---|
  I'm falling apart            barely brea  -   -  thing

e|------------------------------------------------------|
B|------------------------------------------------------|
G|--------------------------------------6---------------|
D|--------------8-----------------------6-----------6---|
A|--------------8-----------------------4-----------6---|
E|--------------6-----------------------------------4---|
  with a broken heart      that's still bea  -  -  ting

e|-----------------------------------------------------|
B|-----------------------------------------------------|
G|-------------6-----------------------6---------------|
D|-------------6-----------------------6-----------6---|
A|-------------4-----------------------4-----------6---|
E|-------------------------------------------------4---|
        in the pain           there is heal  -  -  ing

e|------------------------------------------------------|
B|------------------------------------------------------|
G|--------------------------------------6---------------|
D|--------------8-----------------------6-----------6---|
A|--------------8-----------------------4-----------6---|
E|--------------6-----------------------------------4---|
       in your name             i find mean  -  - ing

e|------------------------------------------------------|
B|------------------------------------------------------|
G|------------------------------------------------------|
D|---------------4-------8-------4-------8-------4-----8|
A|---------------4-------8-------4-------8-------4-----8|
E|---------------2-------6-------2-------6-------2-----6|
  so im holding on       holding on     holding on

e|------------------------------------------------------|
B|------------------------------------------------------|
G|------------6-----------------------------------------|
D|------------6-------------6---------------------------|
A|------------4-------------6---------------------------|
E|--------------------------4---------------------------|
   I'm barely holding on to you

Bridge:
e|------------------------------------------------------------|
B|------------------------------------------------------------|
G|-------------6----------------------------------------6-----|
D|-------------6---------8-----------4------------------6--6--|
A|-------------4---------8-----------4------------------4--6--|
E|-----------------------6-----------2---------------------4--|
  I'm hanging on another day just to see what you throw my way

e|---------------------------------------------------------------------|
B|---------------------------------------------------------------------|
G|-------------6-------------------------------------------------------|
D|-------------6------------------8---------------------4-----------6--|
A|-------------4------------------8---------------------4-----------6--|
E|--------------------------------6---------------------2-----------4--|
  I'm hanging on to the words you say you said that I will, will be okay.

Verse 3:
e|----------------------------------------------|
B|----------------------------------------------|
G|----------------------------------------------|
D|---4-----4-----4-----4-----8-----8-----8-----8|
A|----------------------------------------------|
E|2-----2-----2-----2-----6-----6-----6-----6---|
3.The broken lights on the freeway

e|----------------------------------------------|
B|----------------------------------------------|
G|----------------------------------------------|
D|---4-----4-----4-----4-----8-----8-----8-----8|
A|----------------------------------------------|
E|2-----2-----2-----2-----6-----6-----6-----6---|
  left me here alone

e|----------------------------------------------|
B|----------------------------------------------|
G|----------------------------------------------|
D|---4-----4-----4-----4-----8-----8-----8-----8|
A|----------------------------------------------|
E|2-----2-----2-----2-----6-----6-----6-----6---|
  I may have lost my way now

e|----------------------------------------------|
B|----------------------------------------------|
G|---6-----6-----6-----6-----6-----6-----6------|
D|------------------------------------------6---|
A|4-----4-----4-----4-----4-----4-----4-----6---|
E|------------------------------------------4---|
  Haven't forgotten                 my way home (go to chorus)

Outro:
e|-------------------------------------------------|
B|-------------------------------------------------|
G|-------------------------------------------------|
D|---4-----4-----4-----4-----8-----8-----8-----8--4|
A|------------------------------------------------4|
E|2-----2-----2-----2-----6-----6-----6-----6-----2|

            
            
Suggest correction
Creating personal tab
Creating personal tab
You can edit any tab online and save it as your Personal.

You can edit, replace or remove any tab part or add personal notes – all changes will be seen only by you.

Personal tabs can be accessed anytime from any device, even offline.
Learn more »
Give kudos to tab author, rate the tab!
1 2 3 4 5
comments
print report bad tab
1 comment total.
0 reply
Reprezent 10 Apr 29, 2011 09:01 PM

I thought it was legit-ish :D

guest
You may want to rate the tab now too:
select rating
Wanna post a correction for this tab? Suggest correction