Oops, an error
Loading. Please wait.

H2O chords

94 views 1 this week
no commentswrite comment
1 2 3 4 5
3 more votes to show rating
add to favorites
×
Save as Personal and add changes to this tab that will be seen only by you. Learn more ›
×
You can save this tab as Personal to edit and correct it or add notes. All changes will be seen only by you. Learn more »
launch autoscroll
font size
0
reset
transpose
0
reset
display chords
guitar tuner
edit
Autoscroll
slow
fast
+/-
esc
set tempo
stop
Strumming
There is no strumming pattern for this song yet. and get +5 IQ
[Verse]

     C                 (Put your pinky finger down next to your middle finger)
e|---------------------------------------------------|
B|--------------1-----------------------1------------|
G|--------0--------0-----------0-----0-----0-----0---|
D|-----2-----2--------2--3-------3-----------3-------|
A|--3------------------------------------------------|
E|---------------------------------------------------|

C
You tried your best to bury in the ground
C
A place, a face, a very small town
C
The walls you built are crumbling down
C
Haunted by the shadows all around


[Pre-Chorus]

     Am                      F                         C                    (Pinky down)
e|-------------------------------------------------------------------------------------------------------|
B|--------------1-----------------------1--------------------------1-----------------------1-------------|
G|--------2--------2-----2---------2-------2------2-----------0--------0-----------0-----0-----0-----0---|
D|-----2-----2--------2---------3-----3--------3-----------2-----2--------2--3-------3-----------3-------|
A|--0--------------------------------------------------3-------------------------------------------------|
E|---------------------------1---------------------------------------------------------------------------|

    Am           F        C
And yeah, it was forever ago
    Am             F                   C
The scars are more painful than you'll know


[Chorus]

     C                      Dm                      Am                      F
e|--------------------------------------1------------------------------------------------------------|
B|--------------1-----------------3--------3-----3--------------1-----------------------1------------|
G|--------0--------0-----0-----2-----2--------2-----------2--------2-----2--------2--------2-----2---|
D|-----2-----2--------2-----0--------------------------2-----2--------2--------3-----3--------3------|
A|--3-----------------------------------------------0------------------------------------------------|
E|--------------------------------------------------------------------------1------------------------|

                   Dm         Am               F             C
The ghosts in your heart are alive, spread the ashes of your father
        Dm           Am                 F             C
If your angst has survived, then you're only treading water


[Verse]

e|---------------------------------------------------|
B|--------------1-----------------------1------------|
G|--------0--------0-----------0-----0-----0-----0---|
D|-----2-----2--------2--3-------3-----------3-------|
A|--3------------------------------------------------|
E|---------------------------------------------------|

C
You feel like you can never get it right
C
Sticks and stones have given up the fight
C
Cause words cut sharper than a knife
C
And losses become larger than life


[Pre-Chorus]

     Am                      F                         C                    (Pinky down)
e|-------------------------------------------------------------------------------------------------------|
B|--------------1-----------------------1--------------------------1-----------------------1-------------|
G|--------2--------2-----2---------2-------2------2-----------0--------0-----------0-----0-----0-----0---|
D|-----2-----2--------2---------3-----3--------3-----------2-----2--------2--3-------3-----------3-------|
A|--0--------------------------------------------------3-------------------------------------------------|
E|---------------------------1---------------------------------------------------------------------------|

    Am           F        C
And yeah, it was forever ago
    Am         F                    C
The closer sometimes just wont stay closed


[Chorus]

     C                      Dm                      Am                      F
e|--------------------------------------1------------------------------------------------------------|
B|--------------1-----------------3--------3-----3--------------1-----------------------1------------|
G|--------0--------0-----0-----2-----2--------2-----------2--------2-----2--------2--------2-----2---|
D|-----2-----2--------2-----0--------------------------2-----2--------2--------3-----3--------3------|
A|--3-----------------------------------------------0------------------------------------------------|
E|--------------------------------------------------------------------------1------------------------|

                   Dm         Am               F             C
The ghosts in your heart are alive, spread the ashes of your father
        Dm           Am                 F             C
If your angst has survived, then you're only treading water
          Dm          Am               F             C
If you're lost in the dark then you're only treading water
       Dm       Am               F             C
Release to the wind, spread the ashes of your father


[Bridge]

Dm   Am                 F             C
          'cause you're only treading water

Dm   Am   F          C
           Release me
Dm   Am   F      C
           Let me go
Dm   Am   F          C
           Release me
Dm   Am   F      C
           Let me go
Dm   Am   F          C
           Release me


[Pre-Chorus]               
                   
     Am                      F                         C                    (Pinky down)
e|-------------------------------------------------------------------------------------------------------|
B|--------------1-----------------------1--------------------------1-----------------------1-------------|
G|--------2--------2-----2---------2-------2------2-----------0--------0-----------0-----0-----0-----0---|
D|-----2-----2--------2---------3-----3--------3-----------2-----2--------2--3-------3-----------3-------|
A|--0--------------------------------------------------3-------------------------------------------------|
E|---------------------------1---------------------------------------------------------------------------|

    Am           F        C
And yeah, it was forever ago
        Am         F           C
But the past has a deadly undertow


[Chorus]

     C                      Dm                      Am                      F
e|--------------------------------------1------------------------------------------------------------|
B|--------------1-----------------3--------3-----3--------------1-----------------------1------------|
G|--------0--------0-----0-----2-----2--------2-----------2--------2-----2--------2--------2-----2---|
D|-----2-----2--------2-----0--------------------------2-----2--------2--------3-----3--------3------|
A|--3-----------------------------------------------0------------------------------------------------|
E|--------------------------------------------------------------------------1------------------------|

                   Dm         Am               F             C
The ghosts in your heart are alive, spread the ashes of your father
        Dm           Am                 F             C
If your angst has survived, then you're only treading water
          Dm          Am                F             C
If you're lost in the dark, then you're only treading water
       Dm       Am               F             C
Release to the wind, spread the ashes of your father


[Bridge]

Dm   Am                 F             C
          'cause you're only treading water
Dm   Am               F             C
         Yeah, you're only treading water (let me go...)
Dm   Am         F             C
         You're only treading water (release me...)

            
            
Suggest correction
Creating personal tab
Creating personal tab
You can edit any tab online and save it as your Personal.

You can edit, replace or remove any tab part or add personal notes – all changes will be seen only by you.

Personal tabs can be accessed anytime from any device, even offline.
Learn more »
Give kudos to tab author, rate the tab!
1 2 3 4 5
comments
print report bad tab
guest
You may want to rate the tab now too:
select rating
Wanna post a correction for this tab? Suggest correction