Oops, an error
Loading. Please wait.

Piccola Stella Senza Cielo bass

version 1
version 1

Whole song

Interactive

by Ligabue
10,997 views 12 this week
2 commentsread comments
1 2 3 4 5
1 last vote to show rating
add to favorites
×
Save as Personal and add changes to this tab that will be seen only by you. Learn more ›
×
You can save this tab as Personal to edit and correct it or add notes. All changes will be seen only by you. Learn more »
launch autoscroll
font size
0
reset
guitar tuner
edit
Autoscroll
slow
fast
+/-
esc
set tempo
stop
DI SICURO NON SARA' QUELLA ORIGINALE MA ALMENO E' LA MIGLIORE IN CIRCOLAZIONE, NON CHE' L'UNICA!

INTRO parte con la seconda battuta :
----------------------|-------------------------|
----------------------|-------------0---2---4---|
-0-2-2-2-2-2-2-2-2-2-2|-0-2-2-2-2-2---2---2---2-|
----------------------|-------------------------|

STROFA :
-------------------------|-------------------------|
-------------------------|-------------------------|
-0-2-2-2-2-2-------------|-5-5-5-5-5-5-------------|  x5
-------------3-3-3-3-3-3-|-------------5-5-5-3-3-3-|


RITORNELLO :
---------------------------------------------------------------------|
---------------------------------------------------------------------|
-2-2-2-2-2-2-2-2-2-----------------5-5-5-5-5-5-5-5-5-----------------|  X4
-------------------3-3-3-3-3-3-3-3-------------------5-5-5-5-5-5-5-5-|

STROFA :
-------------------------|-------------------------|
-------------------------|-------------------------|
-0-2-2-2-2-2-------------|-5-5-5-5-5-5-------------|  x5
-------------3-3-3-3-3-3-|-------------5-5-5-3-3-3-|

RITORNELLO :
---------------------------------------------------------------------|
---------------------------------------------------------------------|
-2-2-2-2-2-2-2-2-2-----------------5-5-5-5-5-5-5-5-5-----------------|  X4
-------------------3-3-3-3-3-3-3-3-------------------5-5-5-5-5-5-5-5-|

INTRO
----------------------|-------------------------|
----------------------|-------------0---2---4---|
-0-2-2-2-2-2-2-2-2-2-2|-0-2-2-2-2-2---2---2---2-|   X4
----------------------|-------------------------|

STROFA :
-------------------------|-------------------------|
-------------------------|-------------------------|
-0-2-2-2-2-2-------------|-5-5-5-5-5-5-------------|  x5
-------------3-3-3-3-3-3-|-------------5-5-5-3-3-3-|

RITORNELLO :
---------------------------------------------------------------------|
---------------------------------------------------------------------|
-2-2-2-2-2-2-2-2-2-----------------5-5-5-5-5-5-5-5-5-----------------|  X4
-------------------3-3-3-3-3-3-3-3-------------------5-5-5-5-5-5-5-5-|

INTRO
----------------------|-------------------------|
----------------------|-------------0---2---4---|
-0-2-2-2-2-2-2-2-2-2-2|-0-2-2-2-2-2---2---2---2-|   X4
----------------------|-------------------------|




            
            
Suggest correction
Creating personal tab
Creating personal tab
You can edit any tab online and save it as your Personal.

You can edit, replace or remove any tab part or add personal notes – all changes will be seen only by you.

Personal tabs can be accessed anytime from any device, even offline.
Learn more »
Give kudos to tab author, rate the tab!
1 2 3 4 5
comments
print report bad tab
2 comments total.
0 reply
Fleappo 114 Dec 11, 2007 09:43 AM

La Tab è molto buona, però è della versione live della canzone...Comunque segue molto il groove del bassista di Ligabue

0 reply
solid_snake_91 10 Feb 17, 2017 11:51 PM

ci sono degli errori nell'intro e nel ritornello
manca un passaggio nella seconda parte del ritornello , e le note finali delle battute dell'intro sono sbagliate del ritornello sono decisamente sbagliate
le correzioni dunque sarebbero :
INTRO
-----------------|------------------|
-----------------|------------------|
-0-2-2-2-2-2-2-2-|-0-2-2-2-2--------|
-----------------|-----------5-2-0--|

-----------------|------------------|
-----------------|---------0---2----|
-0-2-2-2-2-2-2-2-|-0-2-2-2---2---2--|
-----------------|------------------|

mentre la seconda parte del ritornello è :
-----------------|---------------|
-----------0-2-4-|5-5-5-5-5-4-2--|
-2-2-2-2-2-------|--------------4|
-----------------|---------------|

-----------------|---------------|
-----------------|---------------|
-5-5-5-5-5-5-5-5-|---------------|
-----------------|5-5-5-5-3-3-3-3|

guest
Wanna post a correction for this tab? Suggest correction