Oops, an error
Loading. Please wait.

The Anhedonia Epidemic tab

148 views 1 this week
1 commentread comment
1 2 3 4 5
2 more votes to show rating
add to favorites
×
Save as Personal and add changes to this tab that will be seen only by you. Learn more ›
×
You can save this tab as Personal to edit and correct it or add notes. All changes will be seen only by you. Learn more »
launch autoscroll
font size
0
reset
how to read this tab
guitar tuner
edit
Autoscroll
slow
fast
+/-
esc
set tempo
stop
[Intro] 

Rhythm:
D|---------------------------------------------------------------------------|
A|---------------------------------------------------------------------------|
F|---------------------------------------------------------------------------|
C|-12/-------15/------14/-----15/-----14-------------------------------------|
G|-8-/-------12/------12/-----12/-----12-------------------------------------|
C|-8-/-------12/------12/-----12/-----12-------------------------------------|


Melody/Riff:
D|-----------------------------|   |---------------------------------------|
A|-----------------------------|   |---------------------------------------|
F|-------------------10p9h10---|x2 |-----------------------14p12h14--------|x2
C|-8~-8-8-8-12p10h12-----------|   |-12~-12-12-12-15p14h15-----------------|
G|-----------------------------|   |---------------------------------------|
C|-----------------------------|   |---------------------------------------|
      . . .                               .  .  .   

Then guitar 2 comes in and harmonizes a third above the intro riff as LTC does.


Riff pt II:
D|--------------------------------------------------------------------------|
A|--------------------------------------------------------------------------|
F|--------------------------------------------------------------------------|
C|-15p12--15p12--8h10h12-8h10h12--15p12--15p12--8h10h12-8h10h12-------------|
G|--------------------------------------------------------------------------|
C|--------------------------------------------------------------------------|

D|--------------------------------------------------------------------------|
A|--------------------------------------------------------------------------|
F|-12-----------------------------------------------------------------------|
C|---15-15-15-15-15-15-15\12-12-12-12-12\10-10-10-10-10-10/12-12-12-12-12---|
G|--------------------------------------------------------------------------|
C|--------------------------------------------------------------------------|

Fill:
D|-----------------------------|
A|-----------------------------|
F|-----------------------------|
C|-12~-10h12p10-8----8---------|
G|----------------12---12-10-8-|
C|-----------------------------|


[Verse] 

Riff:
D|--------------------------------------------------------------------------|
A|--------------------------------------------------------------------------|
F|--------------------------------------------------------------------------|
C|----10---12---------------------------------------------------------------|
G|-88----8----88-12-8-12-88-10-8-10h12--------------------------------------|
C|-88----8----88----8----88----8--------------------------------------------|
   ..    .    ..    .    ..    .      
   
D|--------------------------------------------------------------------------|
A|--------------------------------------------------------------------------|
F|--------------------------------------------------------------------------|
C|----10---12---------------------------------------------------------------|
G|-88----8----88-12-8-12-88-12-12-10-8--------------------------------------|
C|-88----8----88----8----88------------12-----------------------------------|
   ..    .    ..    .    ..   
   
D|--------------------------------------------------------------------------|
A|--------------------------------------------------------------------------|
F|--------------------------------------------------------------------------|
C|----10---12---------------------------------------------------------------|
G|-00----0----00-12-0-12-00-10-0-10h12--------------------------------------|
C|-00----0----00----0----00----0--------------------------------------------|
   ..    .    ..    .    ..    . 
   
D|--------------------------------------------------------------------------|
A|--------------------------------------------------------------------------|
F|--------------------------------------------------------------------------|
C|----10---12----10h12-10-8-10-8h10p8----8----------------------------------|
G|-00----0----00----------------------12------------------------------------|
C|-00----0----00------------------------------------------------------------|
   ..    .    ..     

   
[Pre-Chorus]

D|-------------------|
A|-------------------|
F|-------------------|
C|-12~-14-14-14--14\-|
G|-8~~-10-10-10--10\-|
C|-8~~-10-10-10--10\-|


[Chorus]

D|--------------------------------------------------------------------------|
A|--------------------------------------------------------------------------|
F|------------------17-17-17-14--12/14-14-14--------------------------------|
C|-3-3--5-7-77-7----x--x--x--x----x--x--x--x--------------------------------|
G|-3-3--5-7-77-7----15-15-15 12--10/12-12-12--------------------------------|
C|-3-3--5-7-77-7------------------------------------------------------------|

D|--------------------------------------------------------------------------|
A|--------------------------------------------------------------------------|
F|------------------17-17-17-14--12/10-10-10--------------------------------|
C|-3-3--5-7-77-7----x--x--x--x---x--x--x--x---------------------------------|
G|-3-3--5-7-77-7----15-15-15 12--10/8--8--8---------------------------------|
C|-3-3--5-7-77-7------------------------------------------------------------|


Repeat Verse Riff, Pre-Chorus, and Chorus


[Verse] 

Riff:
D|--------------------------------------------------------------------------|
A|--------------------------------------------------------------------------|
F|--------------------------------------------------------------------------|
C|----10---12---------------------------------------------------------------|
G|-88----8----88-12-8-12-88-10-8-10h12--------------------------------------|
C|-88----8----88----8----88----8--------------------------------------------|

   ..    .    ..    .    ..    .       
D|--------------------------------------------------------------------------|
A|--------------------------------------------------------------------------|
F|--------------------------------------------------------------------------|
C|----10---12---------------------------------------------------------------|
G|-88----8----88-12-8-12-88-12-12-10-8--------------------------------------|
C|-88----8----88----8----88------------12-----------------------------------|
   ..    .    ..    .    ..      
D|--------------------------------------------------------------------------|
A|--------------------------------------------------------------------------|
F|--------------------------------------------------------------------------|
C|----10---12---------------------------------------------------------------|
G|-00----0----00-12-0-12-00-10-0-10h12--------------------------------------|
C|-00----0----00----0----00----0--------------------------------------------|
   ..    .    ..    .    ..    .  
D|--------------------------------------------------------------------------|
A|--------------------------------------------------------------------------|
F|--------------------------------------------------------------------------|
C|----10---12----10h12-10-8-10-8h10p8----8----------------------------------|
G|-00----0----00----------------------12------------------------------------|
C|-00----0----00------------------------------------------------------------|
   ..    .    ..     

   
[Pre-Chorus]

D|---------------------|
A|---------------------|
F|---------------------|
C|-12~-14-14-14--14\------|
G|-8~~-10-10-10--10\------|
C|-8~~-10-10-10--10\------|


[Chorus]

D|--------------------------------------------------------------------------|
A|--------------------------------------------------------------------------|
F|------------------17-17-17-14--12/14-14-14--------------------------------|
C|-3-3--5-7-77-7----x--x--x--x----x--x--x--x--------------------------------|
G|-3-3--5-7-77-7----15-15-15 12--10/12-12-12--------------------------------|
C|-3-3--5-7-77-7------------------------------------------------------------|

D|--------------------------------------------------------------------------|
A|--------------------------------------------------------------------------|
F|------------------17-17-17-14--12/10-10-10--------------------------------|
C|-3-3--5-7-77-7----x--x--x--x---x--x--x--x---------------------------------|
G|-3-3--5-7-77-7----15-15-15 12--10/8--8--8---------------------------------|
C|-3-3--5-7-77-7------------------------------------------------------------|


[Bridge]

D|-------------------------------------------------------------------|
A|-------------------------------------------------------------------|
F|-9-10~-9-10-99\7-7~--10~-9-10-99\7-7~------------------------------|
C|-x--x--x--x-xx-x-x----x--x--x-xx-x-x-------------------------------|
G|-7--8~-7--8-77\5-5~---8~-7--8-77\5-5-------------------------------|
C|---------------------------------------000-0-0-000-0-0-------------|
                                         ... . . ... . .

[Bridge] 

Guitar 2 Harmony:
D|-------------------------------------------------------------------|
A|-------------------------------------------------------------------|
F|-14~-12-14-1212\10-10~--14~-12-14-1212\10-10~----------------------|
C|--x---x--x--x-x--x--x----x---x--x--x-x--x--x-----------------------|
G|-12~-10-12-1010\-8--8~--12~-10-12-1010\-8--8~----------------------|
C|------------------------------------------------000-0-0-000-0-0----|
                                                  ... . . ... . .
Transition:
D|-----------------------|
A|-----------------------|
F|-14~-12-14-1919\17-17~-|
C|--x---x--x--x-x--x--x--|
G|-12~-10-12-1717\15-15~-|
C|-----------------------|

Build-up Guitar 1:
D|-----------------------------------------------------------|
A|-----------------------------------------------------------|
F|-----------------------------------------------------------|
C|-----------------------------------------------------------|
G|-----------------------------------------------------------|
C|-12-0-0-12-0-0-12-0-0-0-0-12-0-0-12-0-0-12-0-0-0-0-0-0-0-0-|

Build-up Guitar 2:
D|----------------------------------------|
A|----------------------------------------|
F|----------------------------------------|
C|-0~-------------------------------------|
G|-0~-------------------------------------|
C|-0~------------------------12-////////0-|

D|----------------------------------------|
A|----------------------------------------|
F|---------------------------14-12-10-9~--|
C|-0~-0~--7~-7~--8~-8~--10~---x--x-x--x---|
G|-0~-0~--7~-7~--8~-8~--10~--12-10-8--7~--|
C|-0~-0~--7~-7~--8~-8~--10~---------------|


[Outro]

Riff (palm mute all notes on the low C string):
D|--------------------------------------------------------------------------------------|
A|--------------------------------------------------------------------------------------|
F|--------------------------------------------------------------------------14-12-10-9~-|
C|---------------------------------------------------------------------------x--x-x--x--|
G|-8-8-8---8-8-8-------7-7-7---7-7-7-10p8-8-8---8-8-8-------10--10--10------12-10-8--7~-|
C|--0-0-0-0-0-0-0-0-0-0-7-7-7-7-7-7-7----8-8-8-8-8-8-8-8-8-8--10--10--10-10-------------|


Solo:
D|-------------------------------------------------------------------------|
A|----------13--------------13---------------------------------------------|
F|------14----14--------14----14--------------14--15-14--------14--15-14---|
C|-12h15--15----15-12h15--15----15-12h15-12h15--15-----15-12h15--15-----15-| 
G|-------------------------------------------------------------------------|
C|-------------------------------------------------------------------------|

D|------------------------------------------------------------------------|
A|----------15--------------15--------------------17----17----17----17----|
F|------15----15--------15----15--------------17----17----17----17----17--|
C|-12h15--15----15-12h15--15----15-12h15-14h17--17----17----17----17----17| 
G|------------------------------------------------------------------------|
C|------------------------------------------------------------------------|

End:
D|-------------------------------------------|
A|-------------------------------------------|
F|-------------------------------------------|
C|-15-xx-15-xx-15-15-xx-15-xx-15-xx-15-15\\\-|
G|-12-xx-12-xx-12-12-xx-12-xx-12-xx-12-12\\\-|
C|-12-xx-12-xx-12-12-xx-12-xx-12-xx-12-12\\\-|



************************************

| x  Dead note
| h  Hammer-on
| p  Pull-off
| /  Slide up
| \  Slide down
| ~  Vibrato
| .  Palm mute   

************************************

            
            
Suggest correction
Creating personal tab
Creating personal tab
You can edit any tab online and save it as your Personal.

You can edit, replace or remove any tab part or add personal notes – all changes will be seen only by you.

Personal tabs can be accessed anytime from any device, even offline.
Learn more »
Give kudos to tab author, rate the tab!
1 2 3 4 5
comments
print report bad tab
1 comment total.
0 reply
RosetaStoned351 623 May 25, 2016 12:54 AM

Awesome, thanks a lot!

guest
You may want to rate the tab now too:
select rating
Wanna post a correction for this tab? Suggest correction