Oops, an error
Loading. Please wait.

High tab

version 1
version 1

Whole song

Interactive

9,611 views 3 this week
no commentswrite comment
1 2 3 4 5
2 more votes to show rating
add to favorites
×
Save as Personal and add changes to this tab that will be seen only by you. Learn more ›
×
You can save this tab as Personal to edit and correct it or add notes. All changes will be seen only by you. Learn more »
launch autoscroll
font size
0
reset
how to read this tab
guitar tuner
edit
Autoscroll
slow
fast
+/-
esc
set tempo
stop
Lighthouse Family - High

Louis Anacoura


        ***CAPO ON 3RD FRET***




The 'Introduction' is not relative to the capo but

everything else is. The strumming isn't exceptionally

important, however i tend not the strum the 'Verse'.

I'm not certain if the 'Bridge' is 100 % correct, but

i'm pretty confident that the right chords are other

variations of the 'F' and the 'Cadd9'. Also the

'Intoduction' partially overlaps the 'Verse', so

just not playying the last 2 '18's'and going into the 

'Verse' is most acceptable. There is an 'Outro' violin

part but i can't really be bothered to tab it.



/Introduction/   (violin part i believe) 
 

e|-------------------------------------------|
B|--/18-----13---15-16-15-----15--16-18--18--|
G|-------------------------------------------|
D|-------------------------------------------|
A|-------------------------------------------|
E|-------------------------------------------|




/Verse/


e|--3------2------0------0----|
B|--3------3------0------1----|
G|--0------2------0----0-0----|
D|--0------0----0-2------2----|
A|--2-------------2------3----|
E|--3-------------0-----------|

    G      D      Em     C




/Bridge/


e|--1-----3-----1-----3-----1-----3-----1-----0--2---|
B|--1-----3-----1-----3-----1-----3-----1-----1--3---|
G|--2-----0-----2-----0-----2-----0-----2-----0--2---|
D|--3-----2-----3-----2-----3-----2-----3-----2--0---|
A|--3-----3-----3-----3-----3-----3-----3-----3------|
E|--1-----------1-----------1-----------1------------|

    F    Cadd9  F    Cadd9  F    Cadd9  F     C  D    




/Chorus/


e|--3----2----0----0----|
B|--3----3----0----1----|
G|--0----2----0----0----|
D|--0----0----2----2----|
A|--2---------2----3----|
E|--3---------0---------|

    G    D    Em   C




/Interlude/


e|--3----2----0----0----|
B|--3----3----1----0----|
G|--0----2----0----0----|
D|--0----0----2----2----|
A|--2---------3----2----|
E|--3--------------0----|

    G    D    C    Em




The Order


Introduction        x 1

Verse               x 4

Bridge              x 1

Chorus              x 2

Verse               x 4

Bridge              x 1

Chorus              x 2

Interlude           x 1

Bridge              x 1

Chorus              x 6

            
            
Suggest correction
Creating personal tab
Creating personal tab
You can edit any tab online and save it as your Personal.

You can edit, replace or remove any tab part or add personal notes – all changes will be seen only by you.

Personal tabs can be accessed anytime from any device, even offline.
Learn more »
Give kudos to tab author, rate the tab!
1 2 3 4 5
comments
print report bad tab
guest
Wanna post a correction for this tab? Suggest correction