Oops, an error
Loading. Please wait.

Just Hold On Were Going Home tab

by Lights
808 views 6 this week
no commentswrite comment
1 2 3 4 5
1 last vote to show rating
add to favorites
×
Save as Personal and add changes to this tab that will be seen only by you. Learn more ›
×
You can save this tab as Personal to edit and correct it or add notes. All changes will be seen only by you. Learn more »
launch autoscroll
font size
0
reset
how to read this tab
guitar tuner
edit
Autoscroll
slow
fast
+/-
esc
set tempo
stop
Author
Tabbed by: Axle2208
Tuning: Standard

She adds in hammer-ons and pull-offs but it's hard to add them in as she plays
them for some bars but not others. 

The other way to play this is to put a capo on fret 5 and play the song down 
on the E, D, and G strings instead. This means you can play the G string open 
instead of having to play the first fret on the B string.


[Intro/Verse]

e|---------------------------------------------------------------------------|
B|---------------------------------------------------------------------------|
G|----2---2---2---2---2---2---2---2-/---5---5---5---5-\----4---4-/----9----9-|
D|---------------------------------------------------------------------------| x6
A|--3---3---3---3---3---3---3---3--/--7---7---7---7---\--5---5---/-10---10---|
E|---------------------------------------------------------------------------|


[Chorus]

e|---------------------------------------------------------------------------|
B|--------1-------1-------1-------1-------1-------1-------1-------1----------|
G|----2-------2-------2-------2-------2-------2-------2-------2--------------|
D|---------------------------------------------------------------------------| x2
A|--3---3---3---3---3---3---3---3---0---0---0---0----------------------------|
E|--------------------------------------------------3---3---3---3------------|


[Verse]

e|---------------------------------------------------------------------------|
B|---------------------------------------------------------------------------|
G|----2---2---2---2---2---2---2---2-/---5---5---5---5-\----4---4-/----9----9-|
D|---------------------------------------------------------------------------| x6
A|--3---3---3---3---3---3---3---3--/--7---7---7---7---\--5---5---/-10---10---|
E|---------------------------------------------------------------------------|


[Chorus]

e|---------------------------------------------------------------------------|
B|--------1-------1-------1-------1-------1-------1-------1-------1----------|
G|----2-------2-------2-------2-------2-------2-------2-------2--------------|
D|---------------------------------------------------------------------------| x2
A|--3---3---3---3---3---3---3---3---0---0---0---0----------------------------|
E|--------------------------------------------------3---3---3---3------------|


[Bridge Pt 1]

e|---------------------------------------------------------------------------|
B|---------------------------------------------------------------------------|
G|---2----5----4-------------------------------------------------------------|
D|---------------------------------------------------------------------------| x2
A|---3----7----5-------------------------------------------------------------|
E|---------------------------------------------------------------------------|


[Bridge Pt 2]

e|---------------------------------------------------------------------------|
B|---------------------------------------------------------------------------|
G|----2---2---2---2---2---2---2---5---5---5---5---4---4---4---4--------------|
D|---------------------------------------------------------------------------| x2
A|--3---3---3---3---3---3---3---7---7---7---7---5---5---5---5----------------|
E|---------------------------------------------------------------------------|

Play nothing between bridge part 2 and final chorus.


[Chorus]

e|---------------------------------------------------------------------------|
B|--------1-------1-------1-------1-------1-------1-------1-------1----------|
G|----2-------2-------2-------2-------2-------2-------2-------2--------------|
D|---------------------------------------------------------------------------| x4
A|--3---3---3---3---3---3---3---3---0---0---0---0----------------------------|
E|--------------------------------------------------3---3---3---3------------|

            
            
Suggest correction
Creating personal tab
Creating personal tab
You can edit any tab online and save it as your Personal.

You can edit, replace or remove any tab part or add personal notes – all changes will be seen only by you.

Personal tabs can be accessed anytime from any device, even offline.
Learn more »
Give kudos to tab author, rate the tab!
1 2 3 4 5
comments
print report bad tab
guest
You may want to rate the tab now too:
select rating
Wanna post a correction for this tab? Suggest correction