Oops, an error
Loading. Please wait.

Saviour tab

by Lights
17,041 views 1 this week
1 commentread comment
1 2 3 4 5
x 4
add to favorites
×
Save as Personal and add changes to this tab that will be seen only by you. Learn more ›
×
You can save this tab as Personal to edit and correct it or add notes. All changes will be seen only by you. Learn more »
launch autoscroll
font size
0
reset
how to read this tab
guitar tuner
edit
Autoscroll
slow
fast
+/-
esc
set tempo
stop
Lights
Saviour
Tabbed by U B the band
Tuning E A D G B e


Intro: Guitar 1 (transcribed from synth)
e|----------10----------10-------------------10----------10-----------|
B|------10----------10----------10-------10----------10----------10---|
G|--11----------11----------11-------11----------11----------11-------|
D|--------------------------------------------------------------------|
A|--------------------------------------------------------------------|
E|--------------------------------------------------------------------|

Verse 1: Guitar 1 (transcribed from synth) “The night is...”
e|----------10----------10-------------------10----------10-----------|
B|------10----------10----------10-------10----------10----------10---|
G|--11----------11----------11-------11----------11----------11-------|
D|--------------------------------------------------------------------|
A|--------------------------------------------------------------------|
E|--------------------------------------------------------------------|

Verse 1: Guitar 1 (transcribed from synth) “...down on my knees”
e|----------10----------10------------------10----------10------------|
B|------10----------10----------10-------10----------10----------10---|
G|--12----------12----------12-------12----------12----------12-------|
D|--------------------------------------------------------------------|
A|--------------------------------------------------------------------|
E|--------------------------------------------------------------------|

Verse 1: Guitar 1 (transcribed from synth) “...back of my mind...”
e|----------10----------10-------------------10----------10-----------|
B|------10----------10----------10-------10----------10----------10---|
G|--11----------11----------11-------11----------11----------11-------|
D|--------------------------------------------------------------------|
A|--------------------------------------------------------------------|
E|--------------------------------------------------------------------|

Verse 1: Guitar 1 (transcribed from synth) “...chose to ignore...”
e|--------------------------------------------------------------------|
B|----------15----------15-------------------15----------15-----------|
G|------18----------18----------18-------18----------18----------18---|
D|--19----------19----------19-------16----------16----------16-------|
A|--------------------------------------------------------------------|
E|--------------------------------------------------------------------|

Verse 1: Guitar 1 (transcribed from synth) “...bit of a manic...”
e|----------10----------10-------------------10----------10-----------|
B|------10----------10----------10-------10----------10----------10---|
G|--11----------11----------11-------11----------11----------11-------|
D|--------------------------------------------------------------------|
A|--------------------------------------------------------------------|
E|--------------------------------------------------------------------|

Verse 1: Guitar 1 (transcribed from synth) “...losing my head...”
e|----------10----------10------------------10----------10------------|
B|------10----------10----------10-------10----------10----------10---|
G|--12----------12----------12-------12----------12----------12-------|
D|--------------------------------------------------------------------|
A|--------------------------------------------------------------------|
E|--------------------------------------------------------------------|

Verse 1: Guitar 1 (transcribed from synth) “...when we were kids...”
e|----------10----------10-------------------10----------10-----------|
B|------10----------10----------10-------10----------10----------10---|
G|--11----------11----------11-------11----------11----------11-------|
D|--------------------------------------------------------------------|
A|--------------------------------------------------------------------|
E|--------------------------------------------------------------------|

Verse 1: Guitar 1 (transcribed from synth) “...denying a crisis...”
e|--------------------------------------------------------------------|
B|----------15----------15-------------------15----------15-----------|
G|------18----------18----------18-------18----------18----------18---|
D|--19----------19----------19-------16----------16----------16-------|
A|--------------------------------------------------------------------|
E|--------------------------------------------------------------------|

Pre-Chorus: Guitar 1 (transcribed from synth) “...I don’t want...”
e|----------12----------12-----------14----------14----------14-------|
B|------15----------15----------15-------15----------15----------15---|
G|--14----------14----------14---------------12-----------------------|
D|--------------------------------------------------------------------|
A|--------------------------------------------------------------------|
E|--------------------------------------------------------------------|

Chorus: Guitar 1 (transcribed from synth) “...run to you...”
e|----------10----------10-------------------10---------10------------|
B|------10----------10----------10-------10---------10----------10----|
G|--11----------11----------11-------12---------12----------12--------|
D|--------------------------------------------------------------------|
A|--------------------------------------------------------------------|
E|--------------------------------------------------------------------|
                                                                      |
Chorus: Guitar 2 (keyboard chords)                                    |
e|--------------------------------------------------------------------|
B|--------------------------------------------------------------------|
G|-----------------------------------2--------------------------------|
D|--5--------------------------------2--------------------------------|
A|--5--------------------------------0--------------------------------|
E|--3-----------------------------------------------------------------|

Chorus: Guitar 1 (transcribed from synth) “...break off the chains...”
e|----------10----------10-------------------12----------12-----------|
B|------10----------10----------10-------15----------15----------15---|
G|--11----------11----------11-------14----------14----------14-------|
D|--------------------------------------------------------------------|
A|--------------------------------------------------------------------|
E|--------------------------------------------------------------------|
                                                                      |
Chorus: Guitar 2 (keyboard chords)                                    |
e|--------------------------------------------------------------------|
B|--3-----------------------------------------------------------------|
G|--2--------------------------------4--------------------------------|
D|--0--------------------------------4--------------------------------|
A|-----------------------------------2--------------------------------|
E|--------------------------------------------------------------------|

Chorus: Guitar 1 (transcribed from synth) “...be so much...”
e|----------10----------10-------------------10---------10------------|
B|------10----------10----------10-------10---------10----------10----|
G|--11----------11----------11-------12---------12----------12--------|
D|--------------------------------------------------------------------|
A|--------------------------------------------------------------------|
E|--------------------------------------------------------------------|
                                                                      |
Chorus: Guitar 2 (keyboard chords)                                    |
e|--------------------------------------------------------------------|
B|--------------------------------------------------------------------|
G|-----------------------------------2--------------------------------|
D|--5--------------------------------2--------------------------------|
A|--5--------------------------------0--------------------------------|
E|--3-----------------------------------------------------------------|

Chorus: Guitar 1 (transcribed from synth) “...the dust that turned...”
e|----------10----------10-------------------12----------12-----------|
B|------10----------10----------10-------15----------15----------15---|
G|--11----------11----------11-------14----------14----------14-------|
D|--------------------------------------------------------------------|
A|--------------------------------------------------------------------|
E|--------------------------------------------------------------------|
                                                                      |
Chorus: Guitar 2 (keyboard chords)                                    |
e|--------------------------------------------------------------------|
B|--3-----------------------------------------------------------------|
G|--2--------------------------------4--------------------------------|
D|--0--------------------------------4--------------------------------|
A|-----------------------------------2--------------------------------|
E|--------------------------------------------------------------------|

Chorus: Guitar 1 (transcribed from synth) “...sooner than later...”
e|----------10----------10-------------------10---------10------------|
B|------10----------10----------10-------10---------10----------10----|
G|--11----------11----------11-------12---------12----------12--------|
D|--------------------------------------------------------------------|
A|--------------------------------------------------------------------|
E|--------------------------------------------------------------------|
                                                                      |
Chorus: Guitar 2 (keyboard chords)                                    |
e|--------------------------------------------------------------------|
B|--------------------------------------------------------------------|
G|--------------------------------------------------------------------|
D|--5-----------------------------------------------------------------|
A|--5-----------------------------------------------------------------|
E|--3-----------------------------------------------------------------|

Chorus: Guitar 1 (transcribed from synth) “...saviour...”
e|----------10----------10-------------------10------14----12----10---|
B|------10----------10----------10-------10---------------------------|
G|--11----------11----------11-------12----------12-------------------|
D|--------------------------------------------------------------------|
A|--------------------------------------------------------------------|
E|--------------------------------------------------------------------|
                                                                      |
Chorus: Guitar 2 (keyboard chords)                                    |
e|--------------------------------------------------------------------|
B|--------------------------------------------------------------------|
G|--------------------------------------------------------------------|
D|--7-----------------------------------------------------------------|
A|--7-----------------------------------------------------------------|
E|--5-----------------------------------------------------------------|

Verse 2: Guitar 1 (transcribed from synth) “It wont ever change...”
e|----------10----------10-------------------10----------10-----------|
B|------10----------10----------10-------10----------10----------10---|
G|--11----------11----------11-------11----------11----------11-------|
D|--------------------------------------------------------------------|
A|--------------------------------------------------------------------|
E|--------------------------------------------------------------------|

Verse 2: Guitar 1 (transcribed from synth) “...hate it, but I know...”
e|----------10----------10------------------10----------10------------|
B|------10----------10----------10-------10----------10----------10---|
G|--12----------12----------12-------12----------12----------12-------|
D|--------------------------------------------------------------------|
A|--------------------------------------------------------------------|
E|--------------------------------------------------------------------|

Verse 2: Guitar 1 (transcribed from synth) “...all you control...”
e|----------10----------10-------------------10----------10-----------|
B|------10----------10----------10-------10----------10----------10---|
G|--11----------11----------11-------11----------11----------11-------|
D|--------------------------------------------------------------------|
A|--------------------------------------------------------------------|
E|--------------------------------------------------------------------|

Verse 2: Guitar 1 (transcribed from synth) “...tighter and tighter...”
e|--------------------------------------------------------------------|
B|----------15----------15-------------------15----------15-----------|
G|------18----------18----------18-------18----------18----------18---|
D|--19----------19----------19-------16----------16----------16-------|
A|--------------------------------------------------------------------|
E|--------------------------------------------------------------------|

Pre-Chorus: Guitar 1 (transcribed from synth) “...I don’t want...”
e|----------12----------12-----------14----------14----------14-------|
B|------15----------15----------15-------15----------15----------15---|
G|--14----------14----------14---------------12-----------------------|
D|--------------------------------------------------------------------|
A|--------------------------------------------------------------------|
E|--------------------------------------------------------------------|

Chorus: Guitar 1 (transcribed from synth) “...run to you...”
e|----------10----------10-------------------10---------10------------|
B|------10----------10----------10-------10---------10----------10----|
G|--11----------11----------11-------12---------12----------12--------|
D|--------------------------------------------------------------------|
A|--------------------------------------------------------------------|
E|--------------------------------------------------------------------|
                                                                      |
Chorus: Guitar 2 (keyboard chords)                                    |
e|--------------------------------------------------------------------|
B|--------------------------------------------------------------------|
G|-----------------------------------2--------------------------------|
D|--5--------------------------------2--------------------------------|
A|--5--------------------------------0--------------------------------|
E|--3-----------------------------------------------------------------|

Chorus: Guitar 1 (transcribed from synth) “...break off the chains...”
e|----------10----------10-------------------12----------12-----------|
B|------10----------10----------10-------15----------15----------15---|
G|--11----------11----------11-------14----------14----------14-------|
D|--------------------------------------------------------------------|
A|--------------------------------------------------------------------|
E|--------------------------------------------------------------------|
                                                                      |
Chorus: Guitar 2 (keyboard chords)                                    |
e|--------------------------------------------------------------------|
B|--3-----------------------------------------------------------------|
G|--2--------------------------------4--------------------------------|
D|--0--------------------------------4--------------------------------|
A|-----------------------------------2--------------------------------|
E|--------------------------------------------------------------------|

Chorus: Guitar 1 (transcribed from synth) “...be so much...”
e|----------10----------10-------------------10---------10------------|
B|------10----------10----------10-------10---------10----------10----|
G|--11----------11----------11-------12---------12----------12--------|
D|--------------------------------------------------------------------|
A|--------------------------------------------------------------------|
E|--------------------------------------------------------------------|
                                                                      |
Chorus: Guitar 2 (keyboard chords)                                    |
e|--------------------------------------------------------------------|
B|--------------------------------------------------------------------|
G|-----------------------------------2--------------------------------|
D|--5--------------------------------2--------------------------------|
A|--5--------------------------------0--------------------------------|
E|--3-----------------------------------------------------------------|

Chorus: Guitar 1 (transcribed from synth) “...the dust that turned...”
e|----------10----------10-------------------12----------12-----------|
B|------10----------10----------10-------15----------15----------15---|
G|--11----------11----------11-------14----------14----------14-------|
D|--------------------------------------------------------------------|
A|--------------------------------------------------------------------|
E|--------------------------------------------------------------------|
                                                                      |
Chorus: Guitar 2 (keyboard chords)                                    |
e|--------------------------------------------------------------------|
B|--3-----------------------------------------------------------------|
G|--2--------------------------------4--------------------------------|
D|--0--------------------------------4--------------------------------|
A|-----------------------------------2--------------------------------|
E|--------------------------------------------------------------------|

Chorus: Guitar 1 (transcribed from synth) “...sooner than later...”
e|----------10----------10-------------------10---------10------------|
B|------10----------10----------10-------10---------10----------10----|
G|--11----------11----------11-------11---------11----------11--------|
D|--------------------------------------------------------------------|
A|--------------------------------------------------------------------|
E|--------------------------------------------------------------------|
                                                                      |
Chorus: Guitar 2 (keyboard chords)                                    |
e|--------------------------------------------------------------------|
B|--------------------------------------------------------------------|
G|--------------------------------------------------------------------|
D|--5-----------------------------------------------------------------|
A|--5-----------------------------------------------------------------|
E|--3-----------------------------------------------------------------|

Chorus: Guitar 1 (transcribed from synth) “...saviour...”
e|----------10----------10-------------------10------14----12----10---|
B|------10----------10----------10-------10---------------------------|
G|--12----------12----------12-------12----------12-------------------|
D|--------------------------------------------------------------------|
A|--------------------------------------------------------------------|
E|--------------------------------------------------------------------|
                                                                      |
Chorus: Guitar 2 (keyboard chords)                                    |
e|--------------------------------------------------------------------|
B|--------------------------------------------------------------------|
G|--------------------------------------------------------------------|
D|--7-----------------------------------------------------------------|
A|--7-----------------------------------------------------------------|
E|--5-----------------------------------------------------------------|

Bridge: Guitar 1 (transcribed from synth) “Stand me...”
e|------------19-------------19-------------17-------------17---------|
B|--17---19--------17---19--------15---17--------15---17--------------|
G|--------------------------------------------------------------------|
D|--------------------------------------------------------------------|
A|--------------------------------------------------------------------|
E|--------------------------------------------------------------------|

Bridge: Guitar 1 (transcribed from synth) “...up maybe I wont...”
e|------------15-------------15-------------15-------------15---------|
B|--14---15--------14---15--------12---14--------12---14--------------|
G|--------------------------------------------------------------------|
D|--------------------------------------------------------------------|
A|--------------------------------------------------------------------|
E|--------------------------------------------------------------------|

Bridge: Guitar 1 (transcribed from synth) “Free my hands...”
e|------------19-------------19-------------17-------------17---------|
B|--17---19--------17---19--------15---17--------15---17--------------|
G|--------------------------------------------------------------------|
D|--------------------------------------------------------------------|
A|--------------------------------------------------------------------|
E|--------------------------------------------------------------------|

Bridge: Guitar 1 (transcribed from synth) “...and feet and maybe...”
e|------------15-------------15-------------15-------------15---------|
B|--14---15--------14---15--------12---14--------12---14--------------|
G|--------------------------------------------------------------------|
D|--------------------------------------------------------------------|
A|--------------------------------------------------------------------|
E|--------------------------------------------------------------------|

Bridge: Guitar 1 (transcribed from synth) “Save me”
e|-------15---14--------15---14--------15---14--------15---14---------|
B|--12-------------12-------------12-------------12-------------------|
G|--------------------------------------------------------------------|
D|--------------------------------------------------------------------|
A|--------------------------------------------------------------------|
E|--------------------------------------------------------------------|

Post Bridge: (transcribed from synth)
e|----------10----------10-------------------10----------10-----------|
B|------10----------10----------10-------10----------10----------10---|
G|--11----------11----------11-------11----------11----------11-------|
D|--------------------------------------------------------------------|
A|--------------------------------------------------------------------|
E|--------------------------------------------------------------------|

Post Bridge: (transcribed from synth) WITH DELAY
e|----------10----------10-------------------10----------10-----------|
B|------10----------10----------10-------10----------10---------------|
G|--9-----------9-----------9--------9-----------9--------------------|
D|--------------------------------------------------------------------|
A|--------------------------------------------------------------------|
E|--------------------------------------------------------------------|

Chorus: Guitar 1 (transcribed from synth) “...run to you...”
e|----------10----------10-------------------10---------10------------|
B|------10----------10----------10-------10---------10----------10----|
G|--11----------11----------11-------12---------12----------12--------|
D|--------------------------------------------------------------------|
A|--------------------------------------------------------------------|
E|--------------------------------------------------------------------|
                                                                      |
Chorus: Guitar 2 (keyboard chords)                                    |
e|--------------------------------------------------------------------|
B|--------------------------------------------------------------------|
G|-----------------------------------2--------------------------------|
D|--5--------------------------------2--------------------------------|
A|--5--------------------------------0--------------------------------|
E|--3-----------------------------------------------------------------|

Chorus: Guitar 1 (transcribed from synth) “...break off the chains...”
e|----------10----------10-------------------12----------12-----------|
B|------10----------10----------10-------15----------15----------15---|
G|--11----------11----------11-------14----------14----------14-------|
D|--------------------------------------------------------------------|
A|--------------------------------------------------------------------|
E|--------------------------------------------------------------------|
                                                                      |
Chorus: Guitar 2 (keyboard chords)                                    |
e|--------------------------------------------------------------------|
B|--3-----------------------------------------------------------------|
G|--2--------------------------------4--------------------------------|
D|--0--------------------------------4--------------------------------|
A|-----------------------------------2--------------------------------|
E|--------------------------------------------------------------------|

Chorus: Guitar 1 (transcribed from synth) “...be so much...”
e|----------10----------10-------------------10---------10------------|
B|------10----------10----------10-------10---------10----------10----|
G|--11----------11----------11-------12---------12----------12--------|
D|--------------------------------------------------------------------|
A|--------------------------------------------------------------------|
E|--------------------------------------------------------------------|
                                                                      |
Chorus: Guitar 2 (keyboard chords)                                    |
e|--------------------------------------------------------------------|
B|--------------------------------------------------------------------|
G|-----------------------------------2--------------------------------|
D|--5--------------------------------2--------------------------------|
A|--5--------------------------------0--------------------------------|
E|--3-----------------------------------------------------------------|

Chorus: Guitar 1 (transcribed from synth) “...the dust that turned...”
e|----------10----------10-------------------12----------12-----------|
B|------10----------10----------10-------15----------15----------15---|
G|--11----------11----------11-------14----------14----------14-------|
D|--------------------------------------------------------------------|
A|--------------------------------------------------------------------|
E|--------------------------------------------------------------------|
                                                                      |
Chorus: Guitar 2 (keyboard chords)                                    |
e|--------------------------------------------------------------------|
B|--3-----------------------------------------------------------------|
G|--2--------------------------------4--------------------------------|
D|--0--------------------------------4--------------------------------|
A|-----------------------------------2--------------------------------|
E|--------------------------------------------------------------------|

Chorus: Guitar 1 (transcribed from synth) “...run to you...”
e|----------10----------10-------------------10---------10------------|
B|------10----------10----------10-------10---------10----------10----|
G|--11----------11----------11-------12---------12----------12--------|
D|--------------------------------------------------------------------|
A|--------------------------------------------------------------------|
E|--------------------------------------------------------------------|
                                                                      |
Chorus: Guitar 2 (keyboard chords)                                    |
e|--------------------------------------------------------------------|
B|--------------------------------------------------------------------|
G|-----------------------------------2--------------------------------|
D|--5--------------------------------2--------------------------------|
A|--5--------------------------------0--------------------------------|
E|--3-----------------------------------------------------------------|

Chorus: Guitar 1 (transcribed from synth) “...break off the chains...”
e|----------10----------10-------------------12----------12-----------|
B|------10----------10----------10-------15----------15----------15---|
G|--11----------11----------11-------14----------14----------14-------|
D|--------------------------------------------------------------------|
A|--------------------------------------------------------------------|
E|--------------------------------------------------------------------|
                                                                      |
Chorus: Guitar 2 (keyboard chords)                                    |
e|--------------------------------------------------------------------|
B|--3-----------------------------------------------------------------|
G|--2--------------------------------4--------------------------------|
D|--0--------------------------------4--------------------------------|
A|-----------------------------------2--------------------------------|
E|--------------------------------------------------------------------|

Chorus: Guitar 1 (transcribed from synth) “...be so much...”
e|----------10----------10-------------------10---------10------------|
B|------10----------10----------10-------10---------10----------10----|
G|--11----------11----------11-------12---------12----------12--------|
D|--------------------------------------------------------------------|
A|--------------------------------------------------------------------|
E|--------------------------------------------------------------------|
                                                                      |
Chorus: Guitar 2 (keyboard chords)                                    |
e|--------------------------------------------------------------------|
B|--------------------------------------------------------------------|
G|-----------------------------------2--------------------------------|
D|--5--------------------------------2--------------------------------|
A|--5--------------------------------0--------------------------------|
E|--3-----------------------------------------------------------------|

Chorus: Guitar 1 (transcribed from synth) “...the dust that turned...”
e|----------10----------10-------------------12----------12-----------|
B|------10----------10----------10-------15----------15----------15---|
G|--11----------11----------11-------14----------14----------14-------|
D|--------------------------------------------------------------------|
A|--------------------------------------------------------------------|
E|--------------------------------------------------------------------|
                                                                      |
Chorus: Guitar 2 (keyboard chords)                                    |
e|--------------------------------------------------------------------|
B|--3-----------------------------------------------------------------|
G|--2--------------------------------4--------------------------------|
D|--0--------------------------------4--------------------------------|
A|-----------------------------------2--------------------------------|
E|--------------------------------------------------------------------|

Chorus: Guitar 1 (transcribed from synth) “...sooner than later...”
e|----------10----------10-------------------10---------10------------|
B|------10----------10----------10-------10---------10----------10----|
G|--11----------11----------11-------11---------11----------11--------|
D|--------------------------------------------------------------------|
A|--------------------------------------------------------------------|
E|--------------------------------------------------------------------|
                                                                      |
Chorus: Guitar 2 (keyboard chords)                                    |
e|--------------------------------------------------------------------|
B|--------------------------------------------------------------------|
G|--------------------------------------------------------------------|
D|--5-----------------------------------------------------------------|
A|--5-----------------------------------------------------------------|
E|--3-----------------------------------------------------------------|

Chorus: Guitar 1 (transcribed from synth) “...saviour...”
e|----------10----------10-------------------10----------10-----------|
B|------10----------10----------10-------10----------10----------10---|
G|--12----------12----------12-------12----------12----------12-------|
D|--------------------------------------------------------------------|
A|--------------------------------------------------------------------|
E|--------------------------------------------------------------------|
                                                                      |
Chorus: Guitar 2 (keyboard chords)                                    |
e|--------------------------------------------------------------------|
B|--------------------------------------------------------------------|
G|--------------------------------------------------------------------|
D|--7-----------------------------------------------------------------|
A|--7-----------------------------------------------------------------|
E|--5-----------------------------------------------------------------|

Chorus: Guitar 2
e|--------------------------------------------------------------------|
B|--------------------------------------------------------------------|
G|--------------------------------------------------------------------|
D|--5----------\7-----------------------------------------------------|
A|--x-----------x-----------------------------------------------------|
E|--7----------\5-----------------------------------------------------|

Finished

            
            
Suggest correction
Creating personal tab
Creating personal tab
You can edit any tab online and save it as your Personal.

You can edit, replace or remove any tab part or add personal notes – all changes will be seen only by you.

Personal tabs can be accessed anytime from any device, even offline.
Learn more »
comments
print report bad tab
1 comment total.
0 reply
Fix Me 103 Oct 24, 2009 08:49 AM

Lol, at first I thought this was completely wrong. Then like two week later I came across this again while listening to the song, and I realized this is all it is, with a bunch delay!

guest
You may want to rate the tab now too:
select rating
Wanna post a correction for this tab? Suggest correction