Oops, an error
Loading. Please wait.

Where The Fence Is Low tab

version 1
version 1

Whole song

by Lights
4,426 views 1 this week
no commentswrite comment
1 2 3 4 5
2 more votes to show rating
add to favorites
×
Save as Personal and add changes to this tab that will be seen only by you. Learn more ›
×
You can save this tab as Personal to edit and correct it or add notes. All changes will be seen only by you. Learn more »
launch autoscroll
font size
0
reset
how to read this tab
guitar tuner
edit
Autoscroll
slow
fast
+/-
esc
set tempo
stop
capo on 4th

E|-----------------------------------------------------------------2--|
B|-----------0--------------3-----------0--------------3--------0-----|
G|--------2--------------0-----------2--------------0--------2--------|
D|-----0--------------2-----------0--------------2--------0-----------|
A|--3--------------2-----------3--------------2-----------------------|
E|--------------0--------------------------0--------------------------|

Where the fence is low
And the water is rising
And the fire comes down
And the dark fills the skies in
One foot on the ledge
And I'm feeling for safety
Somewhere between sure
And I don't know, maybe

E|-------------  ------------------|
B|--------0----  ----1--0h1-----1--|
G|-------------  ------------2-----|
D|-----0-----0-  ------------------|
A|-------------  -0----------------|
E|--3----------  ------------------|

I'm off on my rope here
I'm off on my own here
E|-------------  ------------------|
B|--------0----  ----1--0h1-----1--|
G|-------------  ------------2-----|
D|-----0-----0-  ------------------|
A|-------------  -0----------------|
E|--3----------  ------------------|
And I find my hope here
I find my own here
E|--------3--2h3-----3--------------|
B|-----1----------1-----------1-----|
G|-------------------------0-----0--|
D|----------------------------------|
A|--0-------------------3-----------|
E|----------------------------------|
I'm off on my rope here
Where the fence is low
E|-------------------- -----------------------|
B|-------3---3-----3-- ---1-1-3p1---1-0---1-0-|
G|-----0---0---0-0---0 -----------0-----0-----|
D|-0h5---------------- -----------------------|
A|-------------------- -3---------------------|
E|-------------------- -----------------------|
Where the fence is low (low, low)
E|-------------------- -----------------|
B|-------3---3-----3-- ---1-1-3p1---0---|
G|-----0---0---0-0---0 -----------0-----|
D|-0h5---------------- -----------------|
A|-------------------- -3---------------|
E|-------------------- -----------------|
Where the fence is low (low, low)

Cadd9
Each shadow I walk
Em7
To the ends of the forest
Cadd9
And the shape of the hands
Em7 D Dsus4
That break the ground for us
Cadd9
The fear that contains
Em7
That binds like a blessing
Cadd9
I've been here before
Em7 D Dsus4
Then again I'm guessing

G
I'm off on my rope here
Cadd9
I'm off on my own here
G
And I find my hope here
Cadd9
I find my own here
Csus2
I'm off on my rope here
Cadd9
Where the fence is low
G Gsus
Where the fence is low (low, low)
G   Gsus
Where the fence is low (low, low)

            
            
Suggest correction
Creating personal tab
Creating personal tab
You can edit any tab online and save it as your Personal.

You can edit, replace or remove any tab part or add personal notes – all changes will be seen only by you.

Personal tabs can be accessed anytime from any device, even offline.
Learn more »
Give kudos to tab author, rate the tab!
1 2 3 4 5
comments
print report bad tab
guest
You may want to rate the tab now too:
select rating
Wanna post a correction for this tab? Suggest correction