Oops, an error
Loading. Please wait.

Chaos tab

166 views 1 this week
no commentswrite comment
1 2 3 4 5
3 more votes to show rating
add to favorites
×
Save as Personal and add changes to this tab that will be seen only by you. Learn more ›
×
You can save this tab as Personal to edit and correct it or add notes. All changes will be seen only by you. Learn more »
launch autoscroll
font size
0
reset
how to read this tab
guitar tuner
edit
Autoscroll
slow
fast
+/-
esc
set tempo
stop
Like A Storm
Chaos
Awaken the Fire
http://www.likeastorm.com

Tabbed by Kurt Schenck
Tuning: Drop Bb/A# (Bb-F-Bb-Eb-G-C)

Legend:
h= hammer on
p= pull off
*= palm mute
X= mute


Intro (Repeat 2X)
        Begins after didgeridoo intro
C |-----------------------------------------------------------------------------|
G |-----------------------------------------------------------------------------|
Eb|-----------------------------------------------------------------------------|
Bb|-----X-X--0h2--X-X--2p0--X-X--0h2--2--X-3---0h2--X-X--2p0--X-X--0h2--2--X-5--|
F |-----X-X--0h2--X-X--2p0--X-X--0h2--2--X-3---0h2--X-X--2p0--X-X--0h2--2--X-5--|
Bb|-----X-X--0h2--X-X--2p0--X-X--0h2--2--X-3---0h2--X-X--2p0--X-X--0h2--2--X-5--|


C |---------------------------------------------------------|
G |---------------------------------------------------------|
Eb|---------------------------------------------------------|
Bb|--0h2--X-X--2p0--X-X--0h2--2--X-3----5----7-7-7---7-7-7--|
F |--0h2--X-X--2p0--X-X--0h2--2--X-3----3----5-5-5---5-5-5--|
Bb|--0h2--X-X--2p0--X-X--0h2--2--X-3------------------------|
                                             * *     * *        


Guitar Fill during Intro:
C |---24------------------24---------------------------------|
G |--------24---22---24--------24---22---24---24b---24---22--|
Eb|----------------------------------------------------------|
Bb|----------------------------------------------------------|
F |----------------------------------------------------------|
Bb|----------------------------------------------------------|

Verse 1:
Each day is a war
A fight we must face

Our backs to the wall
Our hands bound and tied, out feet in the grave
C |--------------------------------------------|
G |--------------------------------------------|
Eb|--------------------------------------------|
Bb|--------------------------------------------| X2
F |--------------------------------------------|
Bb|--2-(Palm mute X25)-------0-(Palm mute x7)--|

Pre-chorus:

Sometimes I feel its what kills me inside
Sometimes I feel its what keeps me alive
C |-----------------------|
G |-----------------------|
Eb|-----------------------|
Bb|-----5---------2-------|
F |-----3---------0-------|
Bb|-----------------------|


Chorus:

So take, the world that you hate. The pain that you face
Break. The cage of your life. Awaken the fire inside.
C |-----------------------------------------------------------------------------|
G |-----------------------------------------------------------------------------|
Eb|-----------------------------------------------------------------------------|
Bb|-------0h2--X-X--2p0--X-X--0h2--2--X-3---0h2--X-X--2p0--X-X--0h2--2--X-5-----|
F |-------0h2--X-X--2p0--X-X--0h2--2--X-3---0h2--X-X--2p0--X-X--0h2--2--X-5-----|
Bb|-------0h2--X-X--2p0--X-X--0h2--2--X-3---0h2--X-X--2p0--X-X--0h2--2--X-5-----|


Cause only the strong will survive.
Let the chaos, bring you to life.
C |---------------------------------------------------------|
G |---------------------------------------------------------|
Eb|---------------------------------------------------------|
Bb|--0h2--X-X--2p0--X-X--0h2--2--2-3----5----7-7-7---7-7-7--|
F |--0h2--X-X--2p0--X-X--0h2--2--2-3----3----5-5-5---5-5-5--|
Bb|--0h2--X-X--2p0--X-X--0h2--2--2-3------------------------|
                                             * *     * *        


---REPEAT INTRO---


Verse 2:
The deeper we fall. 
The higher we soar. 

The scars show us all.
We will survive, when we cant take anymore
C |--------------------------------------------|
G |--------------------------------------------|
Eb|--------------------------------------------|
Bb|--------------------------------------------|
F |--------------------------------------------|
Bb|--2-(Palm mute X25)-------0-(Palm mute x7)--|




---REPEAT PRE-CHORUS + CHORUS---



Bridge:

Drain the world.
Till it's all gone.
C |--------------------------------|
G |--------------------------------|
Eb|--------------------------------|
Bb|--------------------------------| x8
F |----------3---------------------|
Bb|---0h2-2-----2--2--2-2--0h2--2-2|
          *  *  *  *  * *       * *

DRAIN THE WORLD!
TILL ITS ALL GONE!
C |--------------------------------|
G |--------------------------------|
Eb|--------------------------------|
Bb|--------------------------------| x8
F |----------3---------------------|
Bb|---0h2-2-----2--2--2-2--0h2--2-2|



---REPEAT PRE-CHORUS + CHORUS---


Outro:
DRAIN THE WORLD!
TILL ITS ALL GONE!
C |--------------------------------|
G |--------------------------------|
Eb|--------------------------------|
Bb|--------------------------------| x8
F |----------3---------------------|
Bb|---0h2-2-----2--2--2-2--0h2--2-2|



            
            
Suggest correction
Creating personal tab
Creating personal tab
You can edit any tab online and save it as your Personal.

You can edit, replace or remove any tab part or add personal notes – all changes will be seen only by you.

Personal tabs can be accessed anytime from any device, even offline.
Learn more »
Give kudos to tab author, rate the tab!
1 2 3 4 5
comments
print report bad tab
guest
You may want to rate the tab now too:
select rating
Wanna post a correction for this tab? Suggest correction