Oops, an error
Loading. Please wait.

Drowned chords

58 views 1 this week
no commentswrite comment
1 2 3 4 5
x 3
add to favorites
×
Save as Personal and add changes to this tab that will be seen only by you. Learn more ›
×
You can save this tab as Personal to edit and correct it or add notes. All changes will be seen only by you. Learn more »
launch autoscroll
font size
0
reset
transpose
0
reset
display chords
guitar tuner
edit
Autoscroll
slow
fast
+/-
esc
set tempo
stop
Strumming
There is no strumming pattern for this song yet. and get +5 IQ
--------------------------------------------------------------------------------------------------------------
                                          Artist - Like Wendy
                                         *********************
                                            Song - Drowned
                                           ****************
                                       Album - Rainchild (2013)   
                                      **************************
                                         Tabbed By - Ayreon77
                                        **********************
--------------------------------------------------------------------------------------------------------------
Tuning = Standard


**************
CAPO 1st FRET - Notes relevant to capo
**************

INTRO - Picking Clean Electric
******
  Dm        C h       Dm        C     Dm   C  Dm  C
e|-------1-|-0-1-----|-------1-|-5-5-|---|---|---|-5-5-|
B|-----3---|-----1---|-----3---|-----|---|---|---|-----|
G|---2-----|-------2-|---2-----|-----|---|---|---|-----|
D|-0-------|---------|-0-------|-----|---|---|---|-----|
A|---------|---------|---------|-----|---|---|---|-----|
E|---------|---------|---------|-----|---|---|---|-----|


---------------------------
VERSE 1 Con Picking
********
Dm            C               Dm
  Drove in my car out of this world
             C
to where the bridge is lying
Dm             C          Gm    F   Dm   C
  To this last chance and unrehearsed

Dm  C

---------------------------
VERSE 2 Con Picking
********
Dm           C             Dm
  I took the path unto the third
                C
there's nothing to deny it
Dm         C              Gm   F   Dm  C
  A raging answered to my thirst

Dm C

---------------------------
CHORUS
*******
C              Bb         F    C
  And when you go I'll be down
              Bb        F
Like when you fall into sound
    F     C  Gm
The river is around


---------------------------
01:36
SOLO 1 - Gm F Gm F      Dm C Dm C
*******
e|----------|--h-------9-----|----h---------s------|------------------------|
B|--h-------|-7-9~~~-9---9-7-|---7-9-7-6-7-6\4-----|----s-s----s-s----------|
G|-6-8~~~-6-|----------------|-8---------------6~~-|-3-3\6/3-3-/6\3--6-6--8-|
D|----------|----------------|---------------------|------------------------|
A|----------|----------------|---------------------|------------------------|
E|----------|----------------|---------------------|------------------------|


---------------------------
01:54
PICKING CLEAN ELECTRIC - See Above
***********************

Dm C Dm C

---------------------------
VERSE 3
********
Dm            C                 Dm
  I broke the headlights in the mist
            C
Ignored the stars were shining
Dm               C               Gm   F   Dm   C
  Just where the clouds began to burst

Dm C

---------------------------
VERSE 4
********
Dm         C             Dm
  An angel in disguise I found
             C
and from the water crying
Dm         C             Gm  F  Dm  C
  I didn't notice him at first

Dm C

---------------------------
CHORUS
*******
C             Bb         F    C
Said when you go I'll be down
              Bb       F
Like when you fall I'm around
    F      C      Gm
You almost had me drowned.


---------------------------
03:20
SOLO 2 -  Gm F Gm F   Dm C Dm C    Dm E Dm E Dm E F E   Dm E F E Dm E F E
*******
e|----------|--h-------9-----|--------h---------s------|-----------------------|
B|--h-------|-7-9~~~-9---9-7-|--h--7-7-9-7-6-7-6\4-----|----s-s-------s--------|
G|-6-8~~~-6-|----------------|-6-8-----------------6~~-|-3-3\6/3-3-6-6\8-8~~~~-|
D|----------|----------------|-------------------------|-----------------------|
A|----------|----------------|-------------------------|-----------------------|
E|----------|----------------|-------------------------|-----------------------|

03:44
e|---------|-----------------|------|-------------------|---------------|---------------|-------------b-r---|
B|--h------|--p--------------|------|-------------h-----|---------------|---------------|---------7-9-9--10-|
G|-6-8-8-8-|-8-6---6---------|------|----------5-5-6--5-|--s--6-8-8-8-8-|--s--6-8-8-8-8-|--s--6-8-----------|
D|---------|-----8---8-8-7-8-|-8----|-----6-8-----------|-6\8-----------|-6\8-----------|-6\8---------------|
A|---------|-----------------|----8-|-8-9---------------|---------------|---------------|-------------------|
E|---------|-----------------|------|-------------------|---------------|---------------|-------------------|


e|---s-------------------------------------------------------------------------------------------------------|
B|-10\9~~~~~-10~~~~~~-10~~~~~~-10~~~~~~-10~~~~~~-10~~~~~~-10~~~~~~-10~~~~~~-9-9-9-11-11-11-13-13-13-13-11-13-|
G|-----------------------------------------------------------------------------------------------------------|
D|-----------------------------------------------------------------------------------------------------------|
A|-----------------------------------------------------------------------------------------------------------|
E|-----------------------------------------------------------------------------------------------------------|
        Hold
        Bend
e|--b---|--|-r-------|
B|-13--13-13---11~~~-|
G|-------------------|
D|-------------------|
A|-------------------|
E|-------------------|

04:19
A  Dm A Dm

---------------------------
04:30
SYNTH
******

---------------------------
04:50 
SOLO 3 - Dm Bb C Gm X2  A Bb A Dm A Bb A Bb A
*******
e|--b--r-----|---------h--p----------------------|---p------------------|---p--------------------------------|
B|-14----12~-|-11-12-11-12-11----11-12-11--------|-14-11----------------|-12-11-----------------------h------|
G|-----------|----------------13----------13-----|-------13-11-11-13-11-|-------13---------------13-11-13~~~-|
D|-----------|-------------------------------13~-|----------------------|----------13---13~~~-11-------------|
A|-----------|-----------------------------------|----------------------|------------------------------------|
E|-----------|-----------------------------------|----------------------|------------------------------------|

05:10
e|---------h--p-----------------------------------------------------------------------------|
B|-11-12-11-12-11----11------h--p-----------------------------------------------------------|
G|----------------13----13-11-13-11---------h--p---------------------------------10-11-13~~-|
D|----------------------------------13-11-11-13-11-------------------11-13-11-13------------|
A|-------------------------------------------------14-13-13-11-13-14------------------------|
E|------------------------------------------------------------------------------------------|

05:15          h  p                     h  p                h  p   
e|---h---9-11-9-11-9-----11-13-14-13--11-13-11----|-13-14-13-14-13----13-----------|
B|-11-12-------------11------------------------14-|----------------16----16--------|
G|------------------------------------------------|-------------------------15~~~~-|
D|------------------------------------------------|--------------------------------|
A|------------------------------------------------|--------------------------------|
E|------------------------------------------------|--------------------------------|

05:21
e|----------------------|----------|-----h--p-------------------------|
B|----------------------|-------11-|-11-9-11-9---h--p---------9-------|
G|-------------10-11-13-|-11-13----|-----------10-11-10-8-10----11-10-|
D|-------11-13----------|----------|----------------------------------|
A|-11-13----------------|----------|----------------------------------|
E|----------------------|----------|----------------------------------|


e|---------h--p--------------h--p--------------------------h--p------------------------|
B|-11-12-11-12-11----11-12-11-12-11----11-12-11----11-12-11-12-11----11---------b----r-|
G|----------------13----------------13----------13----------------13-----13-13-13------|
D|-------------------------------------------------------------------------------------|
A|-------------------------------------------------------------------------------------|
E|-------------------------------------------------------------------------------------|


---------------------------
05:36
OUTRO - ACOUSTIC PICKING
******
  Dm                                E
e|---------------------------------|---------------------------------|
B|---------6---------------6-------|---------------------------------|
G|-------7---7-----------7---7-----|-------1-2-1-----------1-2-1-----|repeat this 
D|-----7-------7-------7-------7---|-----2-------2-------2-------2---|  to the 
A|---5-----------5---5-----------5-|---2-----------2---2-----------2-|     end
E|-5---------------5---------------|-0---------------0---------------|


p   = Pull Off
h   = Hammer On
b   = Bend
rb  = Release Bend
rbp = Release Bend Pulloff
br  = Bend Release
brp = Bend Release Pulloff
~   = Vibrato
/   = Slide
UB  = Union Bend


ENJOY.............

            
            
Suggest correction
Creating personal tab
Creating personal tab
You can edit any tab online and save it as your Personal.

You can edit, replace or remove any tab part or add personal notes – all changes will be seen only by you.

Personal tabs can be accessed anytime from any device, even offline.
Learn more »
Give kudos to tab author, rate the tab!
1 2 3 4 5
comments
print report bad tab
guest
You may want to rate the tab now too:
select rating
Wanna post a correction for this tab? Suggest correction