Oops, an error
Loading. Please wait.

Every Girl tab

version 2
version 2

Whole song

4,815 views 1 this week
1 commentread comment
1 2 3 4 5
3 more votes to show rating
add to favorites
×
Save as Personal and add changes to this tab that will be seen only by you. Learn more ›
×
You can save this tab as Personal to edit and correct it or add notes. All changes will be seen only by you. Learn more »
launch autoscroll
font size
0
reset
how to read this tab
guitar tuner
edit
Autoscroll
slow
fast
+/-
esc
set tempo
stop
                 Alright this like my first tab that i feel cofindent. but feel free to 
a comment or correction

Verse
e-9---11---7-|
B-9---11---7-|
G-9---11---7-|
D-x---x----x-|
A-9---11---7-|
E-x---x----x-|


"i like her long hair thick red bone


This is the main riff for chrous

e-10--------10-----------10-------------------------|
B----12--10----12--10-------12--10---------------12-|
G----------------------12------------12----9---12---|
D---------------------------------------------------|
A---------------------------------------------------| or
E---------------------------------------------------|

We like her, we like her too, and we like her and she like us too


e-10--------10---------------10------------------------------|
B----12--10----12--10--h12----------12--10---------------12--|
G---------------------------12------------12----9---12-------|
D------------------------------------------------------------|
A------------------------------------------------------------|
E------------------------------------------------------------|


well that"s pretty much it. i think :)

            
            
Suggest correction
Creating personal tab
Creating personal tab
You can edit any tab online and save it as your Personal.

You can edit, replace or remove any tab part or add personal notes – all changes will be seen only by you.

Personal tabs can be accessed anytime from any device, even offline.
Learn more »
Give kudos to tab author, rate the tab!
1 2 3 4 5
comments
print report bad tab
1 comment total.
0 reply
Yazerina Star14 36 Oct 06, 2009 07:45 PM

i spelled confident wrong!

guest
You may want to rate the tab now too:
select rating
Wanna post a correction for this tab? Suggest correction