Oops, an error
Loading. Please wait.

Knockout tab

version 1
version 1

Whole song

Interactive

46,150 views 3 this week
3 commentsread comments
1 2 3 4 5
x 4
add to favorites
×
Save as Personal and add changes to this tab that will be seen only by you. Learn more ›
×
You can save this tab as Personal to edit and correct it or add notes. All changes will be seen only by you. Learn more »
launch autoscroll
font size
0
reset
how to read this tab
guitar tuner
edit
Autoscroll
slow
fast
+/-
esc
set tempo
stop
Author
this is a really easy song and as soon as i heard it i knew that i had to tab it out. i 
it in about 20 minutes so there are gonna be flaws, but i think it sounds good. enjoy.

                        PLEASE RATE AND COMMENT
Artists: Lil Wayne and Nicki Minaj
Song: Knockout
Album: Rebirth
Tuning: Standard

 RIFF 1 (x2)
|-------------------------------------------------------------------------|
|-------------------------------------------------------------------------|
|-11-11-11-11-9-9-9-9-11-11-11-11-7-7-7-7-11-11-11-11-9-9-9-9-14-14-14-14-|
|-------------------------------------------------------------------------|
|-------------------------------------------------------------------------|
|-------------------------------------------------------------------------|

|---------------------------------------------------------------------------|
|---------------------------------------------------------------------------|
|-7-7-7-7-11-11-11-11-9-9-9-9-11-11-11-11-7-7-7-7-9-9-9-9-14-14-14-14-99-77-|
|---------------------------------------------------------------------------|
|---------------------------------------------------------------------------|
|---------------------------------------------------------------------------|

 RIFF 2
|---------------------------|
|---------------------------|
|-5-5-5-5-3-3-3-3-5-5-5-5-5-|
|-5-5-5-5-3-3-3-3-5-5-5-5-5-|
|-3-3-3-3-1-1-1-1-3-3-3-3-3-|
|---------------------------|

 RIFF 1 (x4)
|-------------------------------------------------------------------------|
|-------------------------------------------------------------------------|
|-11-11-11-11-9-9-9-9-11-11-11-11-7-7-7-7-11-11-11-11-9-9-9-9-14-14-14-14-|
|-------------------------------------------------------------------------|
|-------------------------------------------------------------------------|
|-------------------------------------------------------------------------|

|---------------------------------------------------------------------------|
|---------------------------------------------------------------------------|
|-7-7-7-7-11-11-11-11-9-9-9-9-11-11-11-11-7-7-7-7-9-9-9-9-14-14-14-14-99-77-|
|---------------------------------------------------------------------------|
|---------------------------------------------------------------------------|
|---------------------------------------------------------------------------|

 RIFF 2
|---------------------------|
|---------------------------|
|-5-5-5-5-3-3-3-3-5-5-5-5-5-|
|-5-5-5-5-3-3-3-3-5-5-5-5-5-|
|-3-3-3-3-1-1-1-1-3-3-3-3-3-|
|---------------------------|

 RIFF 3 (x3)
|---------------------|
|---------------------|
|-9-------12-12-12-12-|   NOTE: the (x14) means u play it 14 times, it
|-x-(x14)--x--x--x--x-|         isnt a note
|-7-------10-10-10-10-|
|---------------------|

 RIFF 1 (x4)
|-------------------------------------------------------------------------|
|-------------------------------------------------------------------------|
|-11-11-11-11-9-9-9-9-11-11-11-11-7-7-7-7-11-11-11-11-9-9-9-9-14-14-14-14-|
|-------------------------------------------------------------------------|
|-------------------------------------------------------------------------|
|-------------------------------------------------------------------------|

|---------------------------------------------------------------------------|
|---------------------------------------------------------------------------|
|-7-7-7-7-11-11-11-11-9-9-9-9-11-11-11-11-7-7-7-7-9-9-9-9-14-14-14-14-99-77-|
|---------------------------------------------------------------------------|
|---------------------------------------------------------------------------|
|---------------------------------------------------------------------------|

 RIFF 3 (x14)
|---------------------|
|---------------------|
|-9-------12-12-12-12-|   NOTE: the (x14) means u play it 14 times, it
|-x-(x14)--x--x--x--x-|         isnt a note
|-7-------10-10-10-10-|
|---------------------|
END.

            
            
Suggest correction
Creating personal tab
Creating personal tab
You can edit any tab online and save it as your Personal.

You can edit, replace or remove any tab part or add personal notes – all changes will be seen only by you.

Personal tabs can be accessed anytime from any device, even offline.
Learn more »
comments
print report bad tab
3 comments total.
-1 reply
unotacoporfavor 10 Oct 21, 2010 04:19 AM

Im pretty sure riff 2 is more like this

l-----------------------------------------------------------------l
l-----------------------------------------------------------------l
l-----------------------------------------------------------------l
l-7-7-7-7-7-7-7-7-----------------4-4-4-4-4-4-4-4-----------------l
l-5-5-5-5-5-5-5-5-7-7-7-7-7-7-7-7-2-2-2-2-2-2-2-2-5-5-5-5-5-5-5-5-l
l-----------------5-5-5-5-5-5-5-5-----------------3-3-3-3-3-3-3-3-l

All palm muted

-2 reply
dawgzfan66 88 Nov 27, 2010 11:35 AM

I'm pretty sure lil' wayne needs to put the guitar down and go back to synthesizers and snares. This song only supports my theory that he is the world's only gay rapper.

+2 reply
themnsound 204 Nov 27, 2010 03:56 PM

dawgzfan66, really, what's your problem? who goes on people's tabs and trolls about how they don't like the artist? grow up and get a life.

guest
You may want to rate the tab now too:
select rating
Wanna post a correction for this tab? Suggest correction