Oops, an error
Loading. Please wait.

Prom Queen tab

version 3
version 3

Whole song

Interactive

85,805 views 3 this week
13 commentsread comments
1 2 3 4 5
x 20
add to favorites
×
Save as Personal and add changes to this tab that will be seen only by you. Learn more ›
×
You can save this tab as Personal to edit and correct it or add notes. All changes will be seen only by you. Learn more »
launch autoscroll
font size
0
reset
how to read this tab
guitar tuner
edit
Autoscroll
slow
fast
+/-
esc
set tempo
stop
Author
[Intro]
(Clean)
E|-------------------------------------------------------------------------|
B|-------------------------------------------------------------------------|
G|-------------------------------------------------------------------------|
D|---5---5---5---5---4---4---4---4---7---7---7---7---9----9----10----------|
A|-----7---7---7---7---5---5---5---5---9---9---9---9---10--10--12----------|
E|-------------------------------------------------------------------------|

[Pre-Verse]
(Distortion Starts)
E|---------------------------------------|
B|---------------------------------------|
G|---------------------------------------|
D|-555555554444444477777777-9--9---10----|
A|-77777777555555559999999910-10---12----| (x2)
E|---------------------------------------|

[Verse]
E|-------------------------------------------------------------------------|
B|-------------------------------------------------------------------------|
G|-------------------------------------------------------------------------|
D|---5---5---5---5---4---4---4---4---7---7---7---7---9----9----10----------|
A|-----7---7---7---7---5---5---5---5---9---9---9---9---10--10--12----------|
E|-------------------------------------------------------------------------|

E|-------------------------------------------------------------------------|
B|-------------------------------------------------------------------------|
G|-------------------------------------------------------------------------|
D|---5---5---5---5---4---4---4---4---7---7---7---7---9----9----10----------|
A|-----7---7---7---7---5---5---5---5---9---9---9---9---10--10--12----------|
E|-------------------------------------------------------------------------|

E|-------------------------------------------------------------------------|
B|--------------------------------------15-15-15-17b19-15-15-15-15-17b19-15|
G|-------------------------------------------------------------------------|
D|---5---5---5---5---4---4---4---4-----------------------------------------|
A|-----7---7---7---7---5---5---5---5---------------------------------------|
E|-------------------------------------------------------------------------|

E|-------------------------------------------------------------------------|
B|--------------------------------------15-15-15-17b19-15-15-15-15-17b19-15|
G|-------------------------------------------------------------------------|
D|---5---5---5---5---4---4---4---4-----------------------------------------|
A|-----7---7---7---7---5---5---5---5---------------------------------------|
E|-------------------------------------------------------------------------|

[Bridge]
E|---------------------------------------|
B|---------------------------------------|
G|---------------------------------------|
D|-555555554444444477777777-9--9---10----|
A|-77777777555555559999999910-10---12----| (x2)
E|---------------------------------------|

[Chorus]
E|--------------------------------------|
B|--------------------------------------|
G|--------------------------------------|
D|--5-5-5-5-4-4-4-4-7-7-7-7---9--9--10--|
A|--7-7-7-4-5-5-5-5-9-9-9-9--10-10--12--| (x2)
E|--------------------------------------|

E|------------------------------------------------|
B|-------------------------------------12-10------|
G|-12b14-12b14-12b14-12b14-12b14 12b14-------12-9-|
D|------------------------------------------------|
A|------------------------------------------------|
E|------------------------------------------------| (x4)

[Pre-Verse]
E|-------------------------|
B|-15-15-15-15-17-15-15-17-|
G|-------------------------|
D|-------------------------|
A|-------------------------|
E|-------------------------|(x4)

[Verse]
E|-------------------------------------------------------------------------|
B|-------------------------------------------------------------------------|
G|-------------------------------------------------------------------------|
D|---5---5---5---5---4---4---4---4---7---7---7---7---9----9----10----------|
A|-----7---7---7---7---5---5---5---5---9---9---9---9---10--10--12----------|
E|-------------------------------------------------------------------------|

E|-------------------------------------------------------------------------|
B|-------------------------------------------------------------------------|
G|-------------------------------------------------------------------------|
D|---5---5---5---5---4---4---4---4---7---7---7---7---9----9----10----------|
A|-----7---7---7---7---5---5---5---5---9---9---9---9---10--10--12----------|
E|-------------------------------------------------------------------------|

E|-------------------------------------------------------------------------|
B|-------------------------------------------------------------------------|
G|-------------------------------------------------------------------------|
D|---5---5---5---5---4---4---4---4---7---7---7---7---9----9----10----------|
A|-----7---7---7---7---5---5---5---5---9---9---9---9---10--10--12----------|
E|-------------------------------------------------------------------------|

E|-------------------------------------------------------------------------|
B|-------------------------------------------------------------------------|
G|-------------------------------------------------------------------------|
D|---5---5---5---5---4---4---4---4---7---7---7---7---9----9----10----------|
A|-----7---7---7---7---5---5---5---5---9---9---9---9---10--10--12----------|
E|-------------------------------------------------------------------------|

E|-------------------------------------------------------------------------|
B|--------------------------------------15-15-15-17b19-15-15-15-15-17b19-15|
G|-------------------------------------------------------------------------|
D|---5---5---5---5---4---4---4---4-----------------------------------------|
A|-----7---7---7---7---5---5---5---5---------------------------------------|
E|-------------------------------------------------------------------------|

E|-------------------------------------------------------------------------|
B|--------------------------------------15-15-15-17b19-15-15-15-15-17b19-15|
G|-------------------------------------------------------------------------|
D|---5---5---5---5---4---4---4---4-----------------------------------------|
A|-----7---7---7---7---5---5---5---5---------------------------------------|
E|-------------------------------------------------------------------------|

[Chorus]
E|--------------------------------------|
B|--------------------------------------|
G|--------------------------------------|
D|--5-5-5-5-4-4-4-4-7-7-7-7---9--9--10--|
A|--7-7-7-4-5-5-5-5-9-9-9-9--10-10--12--|(x2)
E|--------------------------------------|

E|------------------------------------------------|
B|-------------------------------------12-10------|
G|-12b14-12b14-12b14-12b14-12b14 12b14-------12-9-|
D|------------------------------------------------|
A|------------------------------------------------|
E|------------------------------------------------|(x4)

[Solo]
E|-------------------------|
B|-15-15-15-15-17-15-15-17-|
G|-------------------------|
D|-------------------------|
A|-------------------------|
E|-------------------------|(x8)

E|------------------------------------------------|
B|-------------------------------------12-10------|
G|-12b14-12b14-12b14-12b14-12b14 12b14-------12-9-|
D|------------------------------------------------|
A|------------------------------------------------|
E|------------------------------------------------|(x3)

E|------------------------------------------------|
B|------------------------------------------------|
G|-12b14gradually bend to 16 while strumming fast-|
D|------------------------------------------------|
A|------------------------------------------------|
E|------------------------------------------------|

[Chorus]
E|--------------------------------------|
B|--------------------------------------|
G|--------------------------------------|
D|--5-5-5-5-4-4-4-4-7-7-7-7---9--9--10--|
A|--7-7-7-4-5-5-5-5-9-9-9-9--10-10--12--|(x2)
E|--------------------------------------|

E|------------------------------------------------|
B|-------------------------------------12-10------|
G|-12b14-12b14-12b14-12b14-12b14 12b14-------12-9-|
D|------------------------------------------------|
A|------------------------------------------------|
E|------------------------------------------------|(x4)



************************************

| b  Bend
|    
| gradually bend to 
| while strumming fast 

************************************

            
            
Suggest correction
Creating personal tab
Creating personal tab
You can edit any tab online and save it as your Personal.

You can edit, replace or remove any tab part or add personal notes – all changes will be seen only by you.

Personal tabs can be accessed anytime from any device, even offline.
Learn more »
comments
print report bad tab
13 comments total. Showing first comments.
+1 reply
12345 30 Mar 10, 2009 09:01 PM

Nice
Thanks ALOT

+1 reply
XxDre09xX 70 Mar 13, 2009 11:40 PM

:) 5 stars

+1 reply
rojas 10 Mar 25, 2009 08:25 AM

I can't make any corrections but doens't mean there is nothing wrong. Good tab but sorry to say i can't help u with corrections. U forgot the cool part of the solo.

guest
You may want to rate the tab now too:
select rating
Wanna post a correction for this tab? Suggest correction