Oops, an error
Loading. Please wait.

Tie My Hands tab

version 2
version 2

Interactive

6,384 views 1 this week
2 commentsread comments
1 2 3 4 5
3 more votes to show rating
add to favorites
×
Save as Personal and add changes to this tab that will be seen only by you. Learn more ›
×
You can save this tab as Personal to edit and correct it or add notes. All changes will be seen only by you. Learn more »
launch autoscroll
font size
0
reset
how to read this tab
guitar tuner
edit
Autoscroll
slow
fast
+/-
esc
set tempo
stop
Author
-------------------------------------------------------------------------------
                             TIE MY HANDS - Lil Wayne ft. Robin Thicke
-------------------------------------------------------------------------------
Tabbed by: Dobo6
Email: random_paulio@hotmail.com

Tuning: Eadgbe

New song of Lil Waynes album - The Carter 3



Intro
e|---------------------------------------------------------------------------|
B|----8---10--------------------------7--------------------------------------|
G|----9-------9/11------11p9-----8h9------7----------------------------------|
D|------------9/11---------------9--------7----------------------------------|
A|----7-------------------------------------------7/5------------------------|
E|------------7/9----------------7--------5----------------------------------| Repeat

Chords

e|----7-------7/9----------------7--------5----------------------------------|
B|----8-------7/9----------------7--------5----------------------------------|
G|----9-------9/11---------------9--------7----------------------------------|
D|----9-------9/11---------------9--------7----------------------------------|
A|----7-------7/9----------------7--------5----------------------------------|
E|----7-------7/9----------------7--------5----------------------------------| Repeat



| /  slide up
| \  slide down
| h  hammer-on
| p  pull-off
| ~  vibrato
| +  harmonic
| x  Mute note
===============================================================================

            
            
Suggest correction
Creating personal tab
Creating personal tab
You can edit any tab online and save it as your Personal.

You can edit, replace or remove any tab part or add personal notes – all changes will be seen only by you.

Personal tabs can be accessed anytime from any device, even offline.
Learn more »
Give kudos to tab author, rate the tab!
1 2 3 4 5
comments
print report bad tab
2 comments total.
0 reply
Bladt 10 Apr 03, 2009 06:45 AM

I kinda get the feeling that the base should stay at 5'th string. That considered it sounds good, but i can't shake off the feeling that it's not [i]just right:/

PS. I hope html/bb codes work on this site:)

0 reply
Bladt 10 Apr 03, 2009 06:46 AM

Ahh, my bad:)

guest
You may want to rate the tab now too:
select rating
Wanna post a correction for this tab? Suggest correction