Oops, an error
Loading. Please wait.
We have an official Prayer In C tab made by UG professional guitarists. Check out the tab »
×

Prayer In C tab

version 3
version 3

Whole song

Interactive

Video

  • Fingerstyle version with main melody and bass note pinches. TAB on screen.
20,734 views 18 this week
1 commentread comment
1 2 3 4 5
x 8
add to favorites
×
Save as Personal and add changes to this tab that will be seen only by you. Learn more ›
×
You can save this tab as Personal to edit and correct it or add notes. All changes will be seen only by you. Learn more »
launch autoscroll
font size
0
reset
how to read this tab
guitar tuner
edit
Autoscroll
slow
fast
+/-
esc
set tempo
stop
Author
Difficulty
About this tab version
New version, more accurate and includes the bridge part. Was this info helpful? Yes No
Tabbed by: hijoert
Tuning:Standard

[Main part]
    Am                 C              G                 Dm
e|--5---5--7--8-7\5----------------------------------------------------------|
B|---------------------5---5--6--5----3---3--5--6--3----6---6--8--6----------|
G|---------------------------------------------------------------------------|
D|---------------------------------------------------------------------------|
A|---------------------3---3--3--3----------------------5---5--5--5----------|
E|--5---5--5--5-5---------------------3---3--3--3--3-------------------------|

[Bridge]
     Asus4
e|------12-----12----12----12------------------------------------------------|
B|--------------------------------X4-----------------------------------------|
G|---14----14-----14----14---------------------------------------------------|
D|---------------------------------------------------------------------------|
A|---------------------------------------------------------------------------|
E|---------------------------------------------------------------------------|

     Asus4
e|--------------12-----------------------------------------------------------|
B|--------15-------15----15--------x4----------------------------------------|  
G|-----14----14-------14-----------------------------------------------------|
D|---14----------------------------------------------------------------------|
A|---------------------------------------------------------------------------|
E|---------------------------------------------------------------------------|


************************************

| \  Slide down
| x  Dead note

************************************

            
            
Suggest correction
Creating personal tab
Creating personal tab
You can edit any tab online and save it as your Personal.

You can edit, replace or remove any tab part or add personal notes – all changes will be seen only by you.

Personal tabs can be accessed anytime from any device, even offline.
Learn more »
comments
print report bad tab
1 comment total.
-1 reply
RockMel 31 Oct 13, 2014 10:27 AM

Except for your slide and extra base line notes, your main part is the same as the other tab. Nice tab, but I'm pretty sure its missing an extra F note on the B string at the end.

guest
You may want to rate the tab now too:
select rating
Wanna post a correction for this tab? Suggest correction