Oops, an error
Loading. Please wait.

Honk Wave tab

by Limbeck
5,600 views 3 this week
3 commentsread comments
1 2 3 4 5
x 6
add to favorites
×
Save as Personal and add changes to this tab that will be seen only by you. Learn more ›
×
You can save this tab as Personal to edit and correct it or add notes. All changes will be seen only by you. Learn more »
launch autoscroll
font size
0
reset
how to read this tab
guitar tuner
edit
Autoscroll
slow
fast
+/-
esc
set tempo
stop
Author
 .:Limbeck:.
 Honk + Wave
Hi, Everything's Great

G          C                 Bm    Em
She really broke my heart in two.
G                         C add9        G
Four years later, I still never forgave her.
e|------------------------|
B|------------------------|
G|------0-----------0-----|
D|--0h2---2p0-----0-------|
A|------------0h2---------|
E|--------------------3---|

G                     C           Bm     Em
   The thing is, when I was ready to,
       G
I had completely dismissed her.
      C                             G
Now I think I'm driving through her state.

    G                      C add9                  Em
And I'm not ready for some burned down bridge just yet.
e|------------------------|
B|------------------------|
G|------0-----------0-----|
D|--0h2---2p0-----0-------|
A|------------0h2---------|
E|--------------------3---|
    G                     C                  Em
And I'm not sayin’ that I want anything from you.
e|---------------------|
B|---------------------|
G|---------------------|
D|------0----0---------|
A|--0h2---0h2--0h2p0---|
E|-------------------3-|
    G                        C add9            Bm    Em
The only thing I really want now if I see you, Suze,
         G
Is if we drove side by side,
      Am                    C
On a highway in the beehive state,
                       G           C
That we could honk and wave.

G                    C              Bm      Em
   So I'll just keep taking the 15 through.
G                         C                   G
It's kind of early so I'm swerving and turving.
e|------------------------|
B|------------------------|
G|------0-----------0-----|
D|--0h2---2p0-----0-------|
A|------------0h2---------|
E|--------------------3---|
G                 C               Bm       Em
   There's really nothing else to do,
       G
Except sit and keep steering,
C                             G
Thinking, driving through her state.

    G                      C add9                  Em
And I'm not ready for some burned down bridge just yet.
e|------------------------|
B|------------------------|
G|------0-----------0-----|
D|--0h2---2p0-----0-------|
A|------------0h2---------|
E|--------------------3---|
    G                     C add9             Em
And I'm not sayin’ that I want anything from you.
e|---------------------|
B|---------------------|
G|---------------------|
D|------0----0---------|
A|--0h2---0h2--0h2p0---|
E|-------------------3-|
    G                        C                 Bm       Em
The only thing I really want now if I see you, Suze,
         G
Is if we drove side by side,
     Am                     C
On a highway in the beehive state,
                       G
That we could honk and wave.
Em                C        G
    Yeah we could Honk and Wave.

e|------------|
B|------------|
G|------0-----|
D|--0h2---2p0-|
A|------------|
E|------------|

e|--------------------------|
B|----3---------------------|
G|-/4---2p0-------0-----0---|    X2
D|----------2--0h2----0-----|
A|------------------3-------|
E|--------------------------|

C                               Bm
 I wonder of a way that I could
C                         Am
    Make her feel like an ass,
                                   C
Without her think I'm trying to do that.

C                             Am
I’m thinking of a way that I could
C                          Am
     Make her feel like an ass,
     C add9                         C
Without her think I’m tryin’ to,
      C
Without her thinkin’ that.


      G                      Bm                      Em
Cause I'm not ready for some burned down bridge just yet.
e|------------------------|
B|------------------------|
G|------0-----------0-----|
D|--0h2---2p0-----0-------|
A|------------0h2---------|
E|--------------------3---|
    G                     C add9             Em
And I'm not sayin’ that I want anything from you.
e|------------------------|
B|------------------------|
G|------0-----------0-----|
D|--0h2---2p0-----0-------|
A|------------0h2---------|
E|--------------------3---|
    G                        C                 Bm      Em
The only thing I really want now if I see you, Suze, yeah.
         G
Is if we drove side by side,
     Am                C add9    C
On a highway in the beehive state,
           Am
Yeah if we drove side by side,
     C
On a highway in the beehive state,
                       G
That we could honk and wave.
Em                C        G
    Yeah we could Honk and Wave.

Em C G

e|--------------------------|
B|----3---------------------|
G|-/4---2p0-------0-----0---|    X2
D|----------2--0h2----0-----|
A|------------------3-------|
E|--------------------------|

End on G
  Tabbed by MattLyons 4-22-07

            
            
Suggest correction
Creating personal tab
Creating personal tab
You can edit any tab online and save it as your Personal.

You can edit, replace or remove any tab part or add personal notes – all changes will be seen only by you.

Personal tabs can be accessed anytime from any device, even offline.
Learn more »
comments
print report bad tab
3 comments total.
0 reply
MrOtter 20 Jun 03, 2008 12:57 PM

Great tab! I love this song and it sounds dead on to me

0 reply
Limbeck07 10 Apr 06, 2009 06:30 PM

Awesome tab, I'd say it sounds best tuned half step down

0 reply
welaughindoors 31 Dec 25, 2009 10:58 PM

Great tab dude. This song rocks. I like all the cords but I play one riff a little different. I put my correction in brackets.
e|-------------------------|
B|-------------------------|
G|------0-------------0----|
D|--0h2---2p0-------0------|
A|------------[3]h2--------|
E|----------------------3--|

guest
You may want to rate the tab now too:
select rating
Wanna post a correction for this tab? Suggest correction