Oops, an error
Loading. Please wait.

Hanging Upside Down tab

1,283 views 18 this week
no commentswrite comment
1 2 3 4 5
2 more votes to show rating
add to favorites
×
Save as Personal and add changes to this tab that will be seen only by you. Learn more ›
×
You can save this tab as Personal to edit and correct it or add notes. All changes will be seen only by you. Learn more »
launch autoscroll
font size
0
reset
how to read this tab
guitar tuner
edit
Autoscroll
slow
fast
+/-
esc
set tempo
stop
Author
Difficulty
-------------------------------------------------------------------------------
                             Hanging Upside Down - Lime Cordiale
-------------------------------------------------------------------------------
Tabbed by: A. Leeds

Tuning: EADGBe

Intro: 
Just noodle around the Fm, the guitar doesn't do much here.

      Fm
e|-----8---------------------------------------------------------------------|
B|-----9---------------------------------------------------------------------|
G|----10---------------------------------------------------------------------|
D|----10---------------------------------------------------------------------|
A|-----8---------------------------------------------------------------------|
E|-----x---------------------------------------------------------------------|

Verse:

      Adore..                         Goose bumps...       
      Fm     Cm    C#maj7     ...     Fm   Cm   Cm   C#maj7
e|-----8------3------4-----------------8----8----3------4--------------------|
B|-----9------4------6-----------------9----8----4------6--------------------|
G|----10------5------5----------------10----8----5------5--------------------|
D|----10------5------6----------------10---------5------6--------------------|
A|-----8------3------4-----------------8---------3------4--------------------|
E|---------------------------------------------------------------------------|

        Your...                      Is this...
      Eb     Cm    C#maj7            Eb     Fm   Cm    C#maj7  
e|-----6------3------4----------------6------8----3-------4------------------|
B|-----8------4------6----------------8------9----4-------6------------------|
G|-----8------5------5----------------8-----10----5-------5------------------|
D|-----8------5------6----------------8-----10----5-------6------------------|
A|-----6------3------4----------------6------8----3-------4------------------|
E|---------------------------------------------------------------------------|

Chorus:

    Everything is looking up.. I'll come around, come around
    Fm                    G#                           Bbm
e|---8--------------------4----------------------------6---------------------|
B|---9--------------------4----------------------------6---------------------|
G|--10--------------------5----------------------------6---------------------|
D|--10--------------------6----------------------------8---------------------|
A|---8--------------------6----------------------------8---------------------|
E|------------------------4----------------------------6---------------------|

    Everything is looking up.. Pull me up, pull me up, I'm upside down.
    Fm                    G#                           Bbm
e|---8--------------------4----------------------------6---------------------|
B|---9--------------------4----------------------------6---------------------|
G|--10--------------------5----------------------------6---------------------|
D|--10--------------------6----------------------------8---------------------|
A|---8--------------------6----------------------------8---------------------|
E|------------------------4----------------------------6---------------------|

      Hang me      up the   right way, right way round
    Bbm        Eb         Fm           Fm    Cm   Bbm
e|---------------------------------------------------------------------------|
B|---------------------------------------------------------------------------|
G|------------8-8-------10-10----------10------------------------------------|
D|--8-8-------8-8-------10-10----------10----10---8-8------------------------|
A|--8-8-------6-6--------8--8-----------8----10---8-8------------------------|
E|--6-6---------------------------------------8---6-6------------------------|

      Hang me      up the   right way, right way round
    Bbm        Eb         Fm           Fm    Cm   Fm
e|-------------------------------------------------1-------------------------|
B|-------------------------------------------------1-------------------------|
G|------------8-8-------10-10----------10----------1-------------------------|
D|--8-8-------8-8-------10-10----------10----10----2-------------------------|
A|--8-8-------6-6--------8--8-----------8----10----2-------------------------|
E|--6-6---------------------------------------8----1-------------------------|

Verse 2:
Guitar doesn't do much for a bit, chill on the Fm again but short lick goes like:

e|---------------------------------------------------------------------------|
B|---------------------------------------------------------------------------|
G|----------1----------------------------------------------------------------|
D|----3--1------3--1--3------------------------------------------------------|
A|---------------------------------------------------------------------------|
E|---------------------------------------------------------------------------|

  Adore..                         Goose bumps...       
      Fm     Cm    C#maj7     ...      Fm   Cm   Cm   C#maj7
e|-----8------3------4-----------------8----8----3------4--------------------|
B|-----9------4------6-----------------9----8----4------6--------------------|
G|----10------5------5----------------10----8----5------5--------------------|
D|----10------5------6----------------10---------5------6--------------------|
A|-----8------3------4-----------------8---------3------4--------------------|
E|---------------------------------------------------------------------------|

        Your...                      Is this...
      Eb     Cm    C#maj7             Eb     Fm   Cm    C#maj7  
e|-----6------3------4----------------6------8----3-------4------------------|
B|-----8------4------6----------------8------9----4-------6------------------|
G|-----8------5------5----------------8-----10----5-------5------------------|
D|-----8------5------6----------------8-----10----5-------6------------------|
A|-----6------3------4----------------6------8----3-------4------------------|
E|---------------------------------------------------------------------------|


Chorus:

    Everything is looking up.. I'll come around, come around
    Fm                    G#                           Bbm
e|---8--------------------4----------------------------6---------------------|
B|---9--------------------4----------------------------6---------------------|
G|--10--------------------5----------------------------6---------------------|
D|--10--------------------6----------------------------8---------------------|
A|---8--------------------6----------------------------8---------------------|
E|------------------------4----------------------------6---------------------|

    Everything is looking up.. Pull me up, pull me up, I'm upside down.
    Fm                    G#                           Bbm
e|---8--------------------4----------------------------6---------------------|
B|---9--------------------4----------------------------6---------------------|
G|--10--------------------5----------------------------6---------------------|
D|--10--------------------6----------------------------8---------------------|
A|---8--------------------6----------------------------8---------------------|
E|------------------------4----------------------------6---------------------|

      Hang me      up the   right way, right way round
    Bbm        Eb         Fm           Fm    Cm   Bbm
e|---------------------------------------------------------------------------|
B|---------------------------------------------------------------------------|
G|------------8-8-------10-10----------10------------------------------------|
D|--8-8-------8-8-------10-10----------10----10---8-8------------------------|
A|--8-8-------6-6--------8--8-----------8----10---8-8------------------------|
E|--6-6---------------------------------------8---6-6------------------------|

      Hang me      up the   right way, right way round
    Bbm        Eb         Fm           Fm    Cm   Fm
e|-------------------------------------------------1-------------------------|
B|-------------------------------------------------1-------------------------|
G|------------8-8-------10-10----------10----------1-------------------------|
D|--8-8-------8-8-------10-10----------10----10----2-------------------------|
A|--8-8-------6-6--------8--8-----------8----10----2-------------------------|
E|--6-6---------------------------------------8----1-------------------------|



BRIDGE:
                                
      Fm     Cm    C#maj7     ...     Fm   Cm   Cm   C#maj7
e|-----8------3------4-----------------8----8----3------4--------------------|
B|-----9------4------6-----------------9----8----4------6--------------------|
G|----10------5------5----------------10----8----5------5--------------------|
D|----10------5------6----------------10---------5------6--------------------|
A|-----8------3------4-----------------8---------3------4--------------------|
E|---------------------------------------------------------------------------|

    
      Eb     Cm    C#maj7            Eb     Fm   Cm    C#maj7  
e|-----6------3------4----------------6------8----3-------4------------------|
B|-----8------4------6----------------8------9----4-------6------------------|
G|-----8------5------5----------------8-----10----5-------5------------------|
D|-----8------5------6----------------8-----10----6-------6------------------|
A|-----6------3------4----------------6------8----3-------4------------------|
E|---------------------------------------------------------------------------|



END ON CHORUS



************************************

| /   slide up
| \   slide down
| h   hammer-on
| p   pull-off
| ~   vibrato
| +   harmonic
| x   Mute note
| b   Bend
| pb  Pre-bend
| br  Bend release
| pbr Pre-bend release
| brb Bend release bend

************************************

            
            
Suggest correction
Creating personal tab
Creating personal tab
You can edit any tab online and save it as your Personal.

You can edit, replace or remove any tab part or add personal notes – all changes will be seen only by you.

Personal tabs can be accessed anytime from any device, even offline.
Learn more »
Give kudos to tab author, rate the tab!
1 2 3 4 5
comments
print report bad tab
guest
You may want to rate the tab now too:
select rating
Wanna post a correction for this tab? Suggest correction