Oops, an error
Loading. Please wait.

Because Its Midnite tab

version 2
version 2

Whole song

Interactive

1,129 views 1 this week
1 commentread comment
1 2 3 4 5
1 last vote to show rating
add to favorites
×
Save as Personal and add changes to this tab that will be seen only by you. Learn more ›
×
You can save this tab as Personal to edit and correct it or add notes. All changes will be seen only by you. Learn more »
launch autoscroll
font size
0
reset
how to read this tab
guitar tuner
backing track
0:00
0:00
edit
Autoscroll
slow
fast
+/-
esc
set tempo
stop
Difficulty
intermediate
____________________________________________________________________________

                         Because it's Midnite
                            By: Limozeen
____________________________________________________________________________

Intro/Ending:
e|---------------------------------------------------------------------22-|
B|------------------------------------------------------22-19-17-19-22----|
G|15~15-13----17-17-14-12-14-15-17-22-19-19-19-19-17-22-------------------|
D|---------14-------------------------------------------------------------|
A|------------------------------------------------------------------------|
E|------------------------------------------------------------------------|

e|22|
B|--|
G|--|
D|--|
A|--|
E|--|




To play the rest of the song I just use these power chords:


e|--------------|
B|--------------|
G|--------------|
D|9-----12-----7|
A|9-----12-----7|
E|7-----10-----5|

These are usually Palm Muted, exept for in the chorus

The Tab isn't Perfect, but it't better than the on I found

            
            
Suggest correction
Creating personal tab
Creating personal tab
You can edit any tab online and save it as your Personal.

You can edit, replace or remove any tab part or add personal notes – all changes will be seen only by you.

Personal tabs can be accessed anytime from any device, even offline.
Learn more »
Give kudos to tab author, rate the tab!
1 2 3 4 5
comments
print report bad tab
1 comment total.
0 reply
ChrisThePirate 10 Oct 08, 2008 08:24 PM

It's off just by a little

guest
Wanna post a correction for this tab? Suggest correction