Oops, an error
Loading. Please wait.

Itll Be Ok tab

version 1
version 1
40,175 views 30 this week
9 commentsread comments
1 2 3 4 5
x 24
add to favorites
×
Save as Personal and add changes to this tab that will be seen only by you. Learn more ›
×
You can save this tab as Personal to edit and correct it or add notes. All changes will be seen only by you. Learn more »
launch autoscroll
font size
0
reset
how to read this tab
guitar tuner
edit
Autoscroll
slow
fast
+/-
esc
set tempo
stop
It’ll Be O.K.-Limp Bizkit
Chocolate Starfish

C# F# B E G# C#

[Intro] w/ delay
  [Fig 1]
C#|-----------------------------------------------------------------|
G#|--------------------------------3--3-3-3p2--2--------------------|
E |-----0-------0-------4---4--4-4----------------------------------|
B |---4---4---4---4-------------------------------------------------|
F#|-----------------------------------------------------------------|
C#|-0-------0--------3----3-----------------------------------------|

[Verse]
  [Fig 1] x4
C#|-----------------------------------------------------------------|
G#|--------------------------------3--3-3-3p2--2--------------------|
E |-----0-------0-------4---4--4-4----------------------------------|
B |---4---4---4---4-------------------------------------------------|
F#|-----------------------------------------------------------------|
C#|-0-------0--------3----3-----------------------------------------|

  [Riff A]
C#|-----------------------------------------------------------------|
G#|-----8b-------8b----------11b----------11b-----------------------|
E |---9----9---9----9-----12-----12----12-----12--------------------|
B |-----------------------------------------------------------------|
F#|-7--------7---------10-----------10------------------------------|
C#|-----------------------------------------------------------------|

C#|-----------------------------------------------------------------|
G#|-----8b-------8b----------11b----------11b--13p11----------------|
E |---9----9---9----9-----12-----12----12---------------------------|
B |-----------------------------------------------------------------|
F#|-7--------7---------10-----------10------------------------------|
C#|-----------------------------------------------------------------|

  [Pre Chorus] Fig 2.
C#|-----------------------------------------------------------------|
G#|-----------------------------------------------------------------|
E |-----------------------------------------------------------------|
B |-2--2----2-0----------------2--2----2-0--------------------------|
F#|-2--2----------2--2--x-3--x-2--2----------2--2--x-3--x-----------|
C#|-0--0--------3-0--0--x-1--x-0--0--------3-0--0--x-1--x-----------|

[Chorus] Fig 2.
C#|-----------------------------------------------------------------|
G#|-----------------------------------------------------------------|
E |-----------------------------------------------------------------|
B |-2--2----2-0----------------2--2----2-0--------------------------|
F#|-2--2----------2--2--x-3--x-2--2----------2--2--x-3--x-----------|
C#|-0--0--------3-0--0--x-1--x-0--0--------3-0--0--x-1--x-----------|

  [Interlude]
  [Riff B]
C#|------------------------------------------------17--19--22p19----|
G#|------------------------------------15--14--17-------------------|
E |----13----14p13----13-----------16-------------------------------|
B |-----------------------------------------------------------------|
F#|-----------------------------------------------------------------|
C#|-12----12-------12----12-12-15-----------------------------------|

[Bridge] [Riff B]
C#|------------------------------------------------17--19--22p19----|
G#|------------------------------------15--14--17-------------------|
E |----13----14p13----13-----------16-------------------------------|
B |-----------------------------------------------------------------|
F#|-----------------------------------------------------------------|
C#|-12----12-------12----12-12-15-----------------------------------|

  [Riff C]
C#|-----------------------------------------------------------------|
G#|-----------------------------------------------------------------|
E |-------13------------13-------16---16--16-19---18-18--18--18-----|
B |-----------------------------------------------------------------|
F#|-------11------------11-------14---14--14-17---16-16--16--16-----|
C#|-0---0-----0-0---0-0-----0-0-------------------------------------|

[Outro]
  [Fig 1]
C#|-----------------------------------------------------------------|
G#|--------------------------------3--3-3-3p2--2--------------------|
E |-----0-------0-------4---4--4-4----------------------------------|
B |---4---4---4---4-------------------------------------------------|
F#|-----------------------------------------------------------------|
C#|-0-------0--------3----3-----------------------------------------|

that’s all

************************************

| p  Pull-off
| b  Bend
| x  Dead note

************************************

            
            
Suggest correction
Creating personal tab
Creating personal tab
You can edit any tab online and save it as your Personal.

You can edit, replace or remove any tab part or add personal notes – all changes will be seen only by you.

Personal tabs can be accessed anytime from any device, even offline.
Learn more »
comments
print report bad tab
9 comments total. Showing first comments.
0 reply
mark_4:20 0 Feb 25, 2002 07:00 PM

you copied this straight out of the book. oh well i don't care. good tab!

0 reply
Rage 382 Feb 25, 2002 07:00 PM

Yo tza, Thanx to ya for all the authentic tabs ya sendin' in. We could really use the real things so just keep'em comin!!!

0 reply
tza 3,422 Feb 25, 2002 07:00 PM

cool.......i will keep doing it then......save everyone some money :)

guest
You may want to rate the tab now too:
select rating
Wanna post a correction for this tab? Suggest correction