Oops, an error
Loading. Please wait.

The One bass

version 3
version 3

Whole song

Interactive

360 views 3 this week
no commentswrite comment
1 2 3 4 5
3 more votes to show rating
add to favorites
×
Save as Personal and add changes to this tab that will be seen only by you. Learn more ›
×
You can save this tab as Personal to edit and correct it or add notes. All changes will be seen only by you. Learn more »
launch autoscroll
font size
0
reset
guitar tuner
edit
Autoscroll
slow
fast
+/-
esc
set tempo
stop
I've noticed that this tune needed some 4 string love. So here goes something:
I'd say this is pretty accurate, but it might not be a 100%, so feel free to comment.
Enjoy.

[/ -slide]

Intro:
    1 + 2 + 3 + 4 + |1 + 2 + 3 + 4 + |  x3
G |-----------------|----------------|
D |----4------0-----|---14-----11-9--|
A |-----------------|--14-----11-----|
D |-4-----0---------|/14-----11-11---|


Bridge:
G |-----------------|----------------|  x1
D |-----------------|----------------|
A |---------5-------|2---------------|
D |-4---------------|----------------|


Verse (same as intro) x8

Chorus: 
(now, this is a wanky bit. The rhythms most probably vary on second repeat, but 
it's fine as it is too.)

    1 + 2 + 3 + 4 + |1 + 2 + 3 + 4 + |
G |-----------------|----------------|
D |-----------------|222-2222-2222222|
A |--------5-5555555|----------------|
D |-4-444-4---------|----------------|

    1 + 2 + 3 + 4 + |1 + 2 + 3 + 4 + |
G |-----------------|----------------|
D |-----------------|22222222-22-2222|
A |--------5-5-55-55|----------------|
D |-4-444-4---------|----------------|

G |-----------------|----------------|
D |-----------------|222-2222-2222-22|
A |--------5-5555555|----------------|
D |-4-444-4---------|----------------|
     
G |-----------------|----------------|
D |-----------------|222-2222-2222-22|
A |--------5-5-55-55|----------------|
D |-4-444-4---------|----------------|

Bridge  (x1)
Verse   (x8)
Chorus
Bridge  (x4)

(1 bar rest)

Chorus  (double)
Bridge   (x3 till fadeout..)

________________
Tabbed by DubFox

            
            
Suggest correction
Creating personal tab
Creating personal tab
You can edit any tab online and save it as your Personal.

You can edit, replace or remove any tab part or add personal notes – all changes will be seen only by you.

Personal tabs can be accessed anytime from any device, even offline.
Learn more »
Give kudos to tab author, rate the tab!
1 2 3 4 5
comments
print report bad tab
guest
You may want to rate the tab now too:
select rating
Wanna post a correction for this tab? Suggest correction