Oops, an error
Loading. Please wait.

Children Of The Sun bass

version 1
version 1

Whole song

Interactive

275 views 3 this week
2 commentsread comments
1 2 3 4 5
2 more votes to show rating
add to favorites
×
Save as Personal and add changes to this tab that will be seen only by you. Learn more ›
×
You can save this tab as Personal to edit and correct it or add notes. All changes will be seen only by you. Learn more »
launch autoscroll
font size
0
reset
guitar tuner
edit
Autoscroll
slow
fast
+/-
esc
set tempo
stop
-------------------------------------------------------------------------------
                        Children of the Sun - Lindemann
-------------------------------------------------------------------------------
Tabbed by: Stancranford
E-mail: simonhawkinsuk@gmail.com

Tuning: AEADG (5 String Bass)

Main Riff

G|---------------------------------|------------------------------|
D|---------------------------------|------------------------------|
A|---------3-----------------------|---------3--------------------|
E|-3h5-------5-----3h5-------------|-3h5-------5------------------|
A|-----0-0-----0-0-----0-0-0-0-0-0-|-----0-0-----0-0--6--5--6--7--|

G|---------------------------------|------------------------------|
D|---------------------------------|------------------------------|
A|---------3-----------------------|---------3--------------------|
E|-3h5-------5-----3h5-------------|-3h5-------5------------------|
A|-----0-0-----0-0-----0-0-0-0-0-0-|-----0-0-----0-0--6--5--4--2--|

Bridge

G|------------------------------|-------------------------------|
D|------------------------------|-------3-----------------------|
A|------------------------------|-------------------------------|
E|-------1--0--------0----------|-------1--0--------------------|
A|-0--3--------0--3-----0-0-0-0-|-0--3--------2-2-2-2-2---------|

Chorus 1

G|---------------------------|---------------------------|
D|---------------------------|---------------------------|
A|---------------------------|---------------------------|
E|-------------1-1-1-0-0-0-0-|-------------1-1-1-0-1-3-4-|
A|-0-0-0-0-0-0---------------|-0-0-0-0-0-0---------------|

G|---------------------------|---------------------------|
D|---------------------------|---------------------------|
A|---------------------------|---------------------------|
E|-5-5-5-5-5-5-1-1-1-0-------|-------------1-1-1-0-1-3-4-|
A|---------------------4-3-2-|-0-0-0-0-0-0---------------|

Breakdown

G|-----------------------------|-----------------------------|
D|-----------------------------|-----------------------------|
A|-----------------------------|-----------------------------|
E|-0--0-0--------3--3-3--------|-0--0-0----------------------|
A|--------2--2-2--------5--5-5-|--------6--6-6-5--5-5-4--4-4-|

End

G|------|
D|------|
A|------|
E|-5----|
A|------|

Chorus 2

G|---------------------------|---------------------------|
D|---------------------------|---------------------------|
A|---------------------------|---------------------------|
E|-5-5-5-5-5-5-1-1-1-0-------|-------------1-1-1-0-1-3-4-|
A|---------------------4-3-2-|-0-0-0-0-0-0---------------|


Order:
Main riff x 3
Bridge x 1
Chorus 1 x 1
Main Riff x 2
Bridge x 1
Chorus 1 x 1
End x 1
Rest
Breakdown x 2
Rest
Chorus 1 x 1
Chorus 2 x 2
End x 1



| h  hammer-on


===============================================================================

            
            
Suggest correction
Creating personal tab
Creating personal tab
You can edit any tab online and save it as your Personal.

You can edit, replace or remove any tab part or add personal notes – all changes will be seen only by you.

Personal tabs can be accessed anytime from any device, even offline.
Learn more »
Give kudos to tab author, rate the tab!
1 2 3 4 5
comments
print report bad tab
2 comments total.
0 reply
Messel 431 Aug 06, 2015 01:34 AM

Lack of accuracy. main riff is midly incorrect. bridge too. pre verse too. chorus too. breakdown too. he tried, but its not flawless. i'd give 3 stars if at least the intro riff would be correct. thats the most important.

0 reply
stancranford 1,375 Aug 07, 2015 12:25 AM

Feel free to post corrections! All input is appreciated.

guest
You may want to rate the tab now too:
select rating
Wanna post a correction for this tab? Suggest correction