Oops, an error
Loading. Please wait.
We have an official Bleed It Out tab made by UG professional guitarists. Check out the tab »
×
7,297 views 3 this week
1 commentread comment
1 2 3 4 5
x 5
add to favorites
×
Save as Personal and add changes to this tab that will be seen only by you. Learn more ›
×
You can save this tab as Personal to edit and correct it or add notes. All changes will be seen only by you. Learn more »
launch autoscroll
font size
0
reset
guitar tuner
backing track
0:00
0:00
edit
Autoscroll
slow
fast
+/-
esc
set tempo
stop
Author
Difficulty
Linkin Park
Minutes To Midnight
Bleed It Out
Bass Guitar
        
This is Phoenix's part when he comes in this song. simple;just watch your rhythm. Enjoy!!!

Questions? e-mail me at travis_cobb44@verizonmail.com
 
Vr. 1                                                
G||--------------------------|--------------------------|
D||--0--0--0--0--0--0--0--0--|--2--2--2--2--2--2--2--2--|
A||--------------------------|--------------------------|
E||--------------------------|--------------------------|


                                                      
--------------------------|--------------------------|
--------------------------|--4--4--4--4--4--4--4--4--|
--------------------------|--------------------------|
--2--2--2--2--2--2--2--2--|--------------------------|


                                                      
--------------------------|--------------------------|
--0--0--0--0--0--0--0--0--|--2--2--2--2--2--2--2--2--|
--------------------------|--------------------------|
--------------------------|--------------------------|


                                                      
--------------------------|--------------------------|
--------------------------|--2--2--2--2--------------|
--2--2--2--2--2--2--2--2--|--------------4--4--4--4--|
--------------------------|--------------------------|


Chorus                                                      
--------------------------|--2--2--2--2--6--6--6--6--|
--4--4--4--4--4--4--4--4--|--------------------------|
--------------------------|--------------------------|
--------------------------|--------------------------|


                                                      
--4--4--4--4--4--4--4--4--|--9--9--9--9--6--6--6--6--|
--------------------------|--------------------------|
--------------------------|--------------------------|
--------------------------|--------------------------|


                                                      
--------------------------|--2--2--2--2--6--6--6--6--|
--4--4--4--4--4--4--4--4--|--------------------------|
--------------------------|--------------------------|
--------------------------|--------------------------|


                                                                         
--4--4--4--4--4--4--4--4--|--9--9--9--9--6--6--6--6--|------------------|
--------------------------|--------------------------|------------------|
--------------------------|--------------------------|------------------|
--------------------------|--------------------------|------------------|


Verse 2                                                      
--------------------------|--------------------------|
--0--0--0--0--0--0--0--0--|--0--0--0--0--0--0--0--0--|
--------------------------|--------------------------|
--------------------------|--------------------------|


                                                      
--------------------------|--------------------------|
--2--2--2--2--2--2--2--2--|--2--2--2--2--2--2--2--2--|
--------------------------|--------------------------|
--------------------------|--------------------------|


                                                      
--------------------------|--------------------------|
--0--0--0--0--0--0--0--0--|--0--0--0--0--0--0--0--0--|
--------------------------|--------------------------|
--------------------------|--------------------------|


                                                                               
--------------------------|--------------------------|------------------------|
--2--2--2--2--2--2--2--2--|--2--2--2--2--2--2--2--2--|--0-----0--0------0--0--|
--------------------------|--------------------------|------------------------|
--------------------------|--------------------------|------------------------|

			Interlude
                                                                 
------------------------|--------------------|------------------|
--2-----2--2------2--2--|--4-----------------|------------------|
------------------------|--------------------|------------------|
------------------------|--------------------|------------------|


                                                                              
-------------------|------------------|------------------|-------------------|
--4----------------|------------------|------------------|-------------------|
-------------------|------------------|------------------|----------4--------|
-------------------|------------------|------------------|-------------------|


                                                             
-------------------|-------------------|--------------------|
--4----------------|-------------------|--------------------|
-------------------|----------4--------|--2-----------------|
-------------------|-------------------|--------------------|

			Chorus/Ending
                                                                           
--------------------|--------------------------|--2--2--2--2--6--6--6--6--|
--2-----------------|--4--4--4--4--4--4--4--4--|--------------------------|
-----------4--------|--------------------------|--------------------------|
--------------------|--------------------------|--------------------------|


                                                      
--4--4--4--4--4--4--4--4--|--9--9--9--9--6--6--6--6--|
--------------------------|--------------------------|
--------------------------|--------------------------|
--------------------------|--------------------------|


                                                      
--------------------------|--2--2--2--2--6--6--6--6--|
--4--4--4--4--4--4--4--4--|--------------------------|
--------------------------|--------------------------|
--------------------------|--------------------------|


                                                       
--4--4--4--4--4--4--4--4--|--9--9--9--9--6--6--6--6--||
--------------------------|--------------------------||
--------------------------|--------------------------||
--------------------------|--------------------------||



            
            
Suggest correction
Creating personal tab
Creating personal tab
You can edit any tab online and save it as your Personal.

You can edit, replace or remove any tab part or add personal notes – all changes will be seen only by you.

Personal tabs can be accessed anytime from any device, even offline.
Learn more »
comments
print report bad tab
1 comment total.
+1 reply
rastamon360 10 Jun 27, 2007 08:59 AM

nice tab good job on pre-chorous and chorous

guest
You may want to rate the tab now too:
select rating
Wanna post a correction for this tab? Suggest correction