Oops, an error
Loading. Please wait.
We have an official Faint tab made by UG professional guitarists. Check out the tab »
×
2,136 views 3 this week
1 commentread comment
1 2 3 4 5
3 more votes to show rating
add to favorites
×
Save as Personal and add changes to this tab that will be seen only by you. Learn more ›
×
You can save this tab as Personal to edit and correct it or add notes. All changes will be seen only by you. Learn more »
launch autoscroll
font size
0
reset
guitar tuner
backing track
0:00
0:00
edit
Autoscroll
slow
fast
+/-
esc
set tempo
stop
Difficulty
Standard Tunung (EADG)
After Violins
G|--------------------------------------|
D|--------------------------------------|
A|-44444444-77777777-00000000-----------|
E|----------------------------222-4-4-00|

Verse      3rd Time
G|---|    G|---------------|
D|---|X2  D|---------------|
A|-44|    A|-44-----00-----|
E|---|    E|-------------22|

Chorus
G|--------------------------------------|
D|--------------------------------------|
A|-44444444-77777777-00000000-----------|
E|----------------------------222-4-4-00|

G|--------------------------------------------|
D|--------------------------------------------|
A|-44444444-77777777-00000000-----------------|
E|----------------------------222-4-4-00000000|

Verse      3rd Time
G|---|    G|---------------|
D|---|X2  D|---------------|
A|-44|    A|-44-----00-----|
E|---|    E|-------------22|

Chorus
G|--------------------------------------|
D|--------------------------------------|
A|-44444444-77777777-00000000-----------|
E|----------------------------222-4-4-00|

G|--------------------------------------------|
D|--------------------------------------------|
A|-44444444-77777777-00000000-----------------|
E|----------------------------222-4-4-00000000|

Hardcore Part
G|--------------------|
D|---6----------6-----|x3
A|-4---7676--44---7676|
E|--------------------|

Pause

End Chorus
G|--------------------------------------|
D|--------------------------------------|
A|-44444444-77777777-00000000-----------|x3
E|----------------------------222-4-4-00|

G|--------------------------------------------|
D|--------------------------------------------|
A|-44444444-77777777-00000000-----------------|
E|----------------------------222-4-4-00000000|






            
            
Suggest correction
Creating personal tab
Creating personal tab
You can edit any tab online and save it as your Personal.

You can edit, replace or remove any tab part or add personal notes – all changes will be seen only by you.

Personal tabs can be accessed anytime from any device, even offline.
Learn more »
Give kudos to tab author, rate the tab!
1 2 3 4 5
comments
print report bad tab
1 comment total.
0 reply
bigAYR1000 41 Oct 16, 2007 12:25 PM

this looks good....i may try it

guest
Wanna post a correction for this tab? Suggest correction