Oops, an error
Loading. Please wait.
We have an official From The Inside tab made by UG professional guitarists. Check out the tab »
×
4,394 views 99 this week
1 commentread comment
1 2 3 4 5
x 5
add to favorites
×
Save as Personal and add changes to this tab that will be seen only by you. Learn more ›
×
You can save this tab as Personal to edit and correct it or add notes. All changes will be seen only by you. Learn more »
launch autoscroll
font size
0
reset
guitar tuner
edit
Autoscroll
slow
fast
+/-
esc
set tempo
stop
Author
Difficulty
From The Inside Bass Tab
Standard tuning.

Tabbed by: MusicMaster94
Please e-mail changes or comments: musicmaster94@live.co.uk

This is my first tab and it is about 100% correct.

Listen to the bridge carefully because the beat is quite strange.

Intro	00:07
G |----------------------------------------------------------------|
D |----------------------------------------------------------------|
A |-------------------------------12-12-12-12-12-12-9-9-9-11-11-11-|     x2
E |-9-9-9-9-9-9-12-12-12-12-12-12----------------------------------|

Verse:
G |-------------------------------------------------|
D |-------------------------------------------------|
A |-------------------------------------------------|	x4
E |-9-9-9-9-9-9-7-7-7-7-7-7-5-5-5-5-5-5-2-2-2-4-4-4-|

Chorus
G |----------------------------------------------------------------|
D |----------------------------------------------------------------|
A |-------------------------------12-12-12-12-12-12-9-9-9-11-11-11-|	x2
E |-9-9-9-9-9-9-12-12-12-12-12-12----------------------------------|

G |-------------------------------------------------|
D |-------------------------------------------------|
A |-------------------------------------------------|	x4
E |-9-9-9-9-9-9-7-7-7-7-7-7-5-5-5-5-5-5-2-2-2-4-4-4-|

Chorus
G |----------------------------------------------------------------|
D |----------------------------------------------------------------|
A |-------------------------------12-12-12-12-12-12-9-9-9-11-11-11-|	x2
E |-9-9-9-9-9-9-12-12-12-12-12-12----------------------------------|

Bridge
G |--------------------------------------------|
D |--------------------------------------------|
A |--------------------------------------------|	x3
E |-9--9--9-9--9--9--9-9--9--9--9-9--9--9--9-9-|

Chorus
G |----------------------------------------------------------------|
D |----------------------------------------------------------------|
A |-------------------------------12-12-12-12-12-12-9-9-9-11-11-11-|	x4
E |-9-9-9-9-9-9-12-12-12-12-12-12----------------------------------|

Outro
G |--------------------------------------------|
D |--------------------------------------------|
A |--------------------------------------------|
E |-9--9--9-9--9--9--9-9--9--9--9-9--9--9--9-9-|

Rate and enjoy!

            
            
Suggest correction
Creating personal tab
Creating personal tab
You can edit any tab online and save it as your Personal.

You can edit, replace or remove any tab part or add personal notes – all changes will be seen only by you.

Personal tabs can be accessed anytime from any device, even offline.
Learn more »
comments
print report bad tab
1 comment total.
0 reply
Ben Walter 52 Oct 09, 2013 05:41 PM

good tab thnx

guest
You may want to rate the tab now too:
select rating
Wanna post a correction for this tab? Suggest correction