Oops, an error
Loading. Please wait.
We have an official From The Inside tab made by UG professional guitarists. Check out the tab »
×
44,013 views 54 this week
3 commentsread comments
1 2 3 4 5
x 11
add to favorites
×
Save as Personal and add changes to this tab that will be seen only by you. Learn more ›
×
You can save this tab as Personal to edit and correct it or add notes. All changes will be seen only by you. Learn more »
launch autoscroll
font size
0
reset
how to read this tab
guitar tuner
edit
Autoscroll
slow
fast
+/-
esc
set tempo
stop
Linkin Park
From the Inside
Meteora
Tabbed by: Rob Walden
Tuning: Drop D flat

[Intro]
E|----------------|
B|----------------|
G|-14-12-14-12-12-|
D|----------------|
A|----------------|
D|----------------|

[Chorus]
E|-----------------------------------|
B|-----------------------------------|
G|-----------------------------------|
D|-----------------000-333-888-55-77-|
A|-----------------000-333-888-55-77-|
D|-12*-12*-12*-12*-000-333-888-55-77-|

[Verse]
E|-----------------------------------|
B|-----------------------------------|
G|-14-14-14-12-12-12-14-14-14-9-9-10-|
D|-----------------------------------|
A|-----------------------------------|
D|-----------------------------------|

[Bridge] A "I won't trust myself with you!"
E|-----------------|
B|-----------------|
G|-----------------|
D|-000-000-000-111-|
A|-000-000-000-111-|
D|-000-000-000-111-|

[Bridge] B "I WONT WASTE MYSELF ON YOU!!!"
E|-----------------------------------|
B|-----------------------------------|
G|-----------------------------------|
D|-000-3-1-1-000-3-1-1-000-3-1-1-111-|
A|-000-3-1-1-000-3-1-1-000-3-1-1-111-|
D|-000-----1-000-----1-000-----1-111-|

[Outro]
E|-----------------|
B|-----------------|
G|-----------------|
D|-000-000-000-000-|
A|-000-000-000-000-|
D|-000-000-000-000-|

[Song Order]
[Intro X4 (play intro throughout choruses also w/ a second guitarist)
[Chorus] (w/out harmonics on 12) X2
[Verse] X4
[Chorus] X2
[Verse] X4
[Chorus] X2
[Bridge A] X1
[Bridge B] X2
[Chorus] X4 (first time thru, play intro instead of the 000)
[Outro] X1

Aight, Im me at kornfellow91 for comments or leave one in the box above.

            
            
Suggest correction
Creating personal tab
Creating personal tab
You can edit any tab online and save it as your Personal.

You can edit, replace or remove any tab part or add personal notes – all changes will be seen only by you.

Personal tabs can be accessed anytime from any device, even offline.
Learn more »
comments
print report bad tab
3 comments total.
0 reply
bball_1523 20 Apr 04, 2003 07:00 PM

-5-5-3---------
--3-3-3--------
---------------
---------------
---------------
---------------

That's the intro

0 reply
munkyman 491 Apr 05, 2003 07:00 PM

oops my bad, sorry that guys intro is right!

0 reply
Domas31 20 Aug 30, 2010 12:51 PM

your intro is right when you play the open d string between every note you wrote, but bballs version sound better

guest
You may want to rate the tab now too:
select rating
Wanna post a correction for this tab? Suggest correction